No Te Rindas

Habeas Corpus

Album: HC
Genero: Pop

Tablatura (Ver letra)

Cancion original de K.O.P. Esta es la versión de Habeas corpus

Para Pat de Kanillejas... 100% antifeixista 100% feminista

Intro

|----------------------------------------------------
|----------------------------------------------------
|----------------------------------------------------
|----------------------------------------------------
|-----------------2-2-2-2-2-2-2-2--------------------
|-0-0-0-0-0-0-0-0-----------------3-3-3-3-3-3-3-3----

|---------------------
|---------------------
|---------------------
|---------------------
|---------5-5-5-5-5---
|-2-2-2-2-------------

Comienza el Riff

Acordes Mi - Sol - Fa# - Re#

Riff tiene dos partes:


Riff 1
E G F# - D#
|----------------------------------------
|----------------------------------------
|-------------------------------------7--
|-2-2--2-2--2-2--2-2----5---------2---7--
|-2-2--2-2--2-2--2-2----5---------4---5--
|-0-0--0-0--0-0--0-0----3---------4------

Los dos primeros golpes del Mi son con palm mute
Sol dejalo sonar y cambias rapido de Fa# a Re#

Riff 2
E G F#
|--------------------------------------
|--------------------------------------
|--------------------------------------
|-2-2--2-2-------------5---------2-----
|-2-2--2-2-------------5---------4-----
|-0-0--0-0--0-0-0-0----3---------4-----

Deja sonar Fa# doble tiempo

Estribillo:

A dos guitarras

No hay cárcel. No hay leyes que encierren nuestros sueños
|----------------------------------------------------
|----------------------------------------------------
|----------------------------------------------------
|-5--4---------5---4--------5---4----------5---4-----
|-5--4---------5---4--------5---4----------5---4-----
|-3--2---------3---2--------3---2----------3---2-----

Guitarra 2
|----------------------------------------------------
|----------------------------------------------------
|-8-7-8--------8-7-8--------8-7-8---9---8-7-8--------
|----------------------------------------------------
|----------------------------------------------------
|----------------------------------------------------

Estructura de la canción:

Intro X 4

Riff 1 + riff 2 X 2


Riff 1 Riff 2
Las barricadas de Berlín, el 1 de mayo: Fuck the Police.
Riff 1 Riff 2
En aquella huelga estudiantil. México DF en el 2000.
Riff 1 Riff 2
Con los Campesinos del Brasil ocupando tierras para vivir.
Riff 1 Riff 2
Y en cualquier prisión en un motín. Nuestra consigna es resistir.

Estribillo
No hay cárcel. No hay leyes que encierren nuestros sueños.
No hay cárcel. No hay leyes que encierren nuestros sueños.

Riff 1 Riff 2
Barna antifeixista vencerá. El 12 de octubre. No Pasarán!!
Riff 1 Riff 2
En el 92 en L.A. con nuestros hermanos. No más impunidad.
Riff 1 Riff 2
En Seattle, en Praga o en Washington. Contra el capitán, agitación.
Riff 1 Riff 2
Con las Madres en la Plaza de Mayo, no habrá olvido, tampoco perdón.

Estribillo
No hay cárcel. No hay leyes que encierren nuestros sueños.
No hay cárcel. No hay leyes que encierren nuestros sueños.
No te rindas, JUANRA. Resiste.
No te rindas, JUANRA. Resiste.
No te rindas, JUANRA. Resiste.
No te rindas. Resiste.

Da piedra son los muros que envuelven esta oscuridad.
De piedra es el ataúd que siempre oculta el dolor.
De rejas y cadenas se han cubierto nuestro mundo.
Porque volveremos con piedras cargadas de odio, tanta represión.

En las barricadas de Berlín, el uno de mayo: Fuck the Police.
Barna antifeixista vencerá. El 12 de octubre: No Pasarán!!
Con las Madres en la Plaza de Mayo, no habrá olvido, tampoco perdón.
Y en cualquier prisión en un motín. Nuestra consigna es resistir.

No hay cárcel. No hay leyes que encierren nuestros sueños.
No hay cárcel. No hay leyes que encierren nuestros sueños.
No te rindas, JUANRA. Resiste.
No te rindas, JUANRA. Resiste.
No te rindas, JUANRA. Resiste
No te rindas. Resiste.
No, no te rindas. Resiste.
No, no te rindas. Resiste.

Gente la cancion es sencilla de sacar.. espero ke os mole..
Kualkier duda escribir a drakoniak_guitar@hotmail.com

ANARKIA...... el uniko camino