Enterrado En Vida

Habeas Corpus

Genero: Pop

Tablatura

Transcrita por: Genosisus
Email: genosisus@hotmail.com

Bueno aqui una de las mejores canciones de HC XD
La canción en si es fácil, xq son 2 acordes, de lo que se trata es de pillar el ritmo.
La canción es en \'G\' (SOL) lo que se baja un semitono la afinación, o sea (F#),
esta lista para tocar(f#) no hace falta bajar nada está lista para tocar XD.
que aprobeche :P

Compas 4/4
F#5
--------------------------------------------------------|---------------------
--------------------------------------------------------|---------------------
---4---4---2---2----------------------------------------|---------------------
-4---4---4---4---4-p-2-p-0-0/---------------------------|---Intro-x4----------
----------------------------/---4---4---4-4--5-4-2-h-4--|---------------------
----------------------------/-2---2---4-----------------|---------------------


(Riff1) Mismo ritmo
D7 B7 F#5 |============================================|
--------------------------|--------------------------|------------------------
--------------------------|-------(Lik1)-------------|--------(Riff2)---------
----7----4----------------|--------------------------|------------------------
----7----4------44444444--|---4-4-4-4-4-----4-4-4-4--|-----44444----4444------
----5----2------44444444--|--------------------------|-----44444----4444------
----5----2------22222222--|--------------------------|-----22222----2222------

Estoy obligado a vivir... Nadie y cuando digo nadie...
mi vida es solo mia.... (Durante casi toda la canción)



Final outro
------------------------------------------------------------------------------
------------------------------------------------------------------------------
---4---4---2---2-------4---4---2---2------------------------------------------
-4---4---4---4---4---4---4---4---4-------------- --Al final se repita la intro
------------------------------------------------------------------------------
------------------------------------------------------------------------------
Derecho a la authenasia derecho al suicidio....
E vida E muerte....


ESTRUCTURA y letra


Intro x4

(Riff1)
D7 B7 F#5
Estoy obligado a vivir a tener que aprender a vivir Enterrado en vida

D7 B7 F#5
Estoy obligado a vivir a tener que aprender a vivir Enterrado en vida

D7 B7 F#5
Estoy obligado a vivir a tener que aprender a vivir Enterrado en vida

D7 B7 F#5
Pero me ahoga mi vida, me ahoga esta vida exigo el derecho a acabar con mi vida

(Lik1)

(Riff2) la quinta de F# con el ritmo del lik1

Nadie y cuando digo nadie estoy diciendo que nadie tiene ningun derecho
de decidir sobre mi vida, tiene derecho alguno de decidir sobre mi muerte
ni cuando ni como ni porqué, porqué nadie deberia estar por encima ni por
debajo de nadie y cuando digo nadie estoy diciendo que paren porfavor paren
todo este dolor tengo todo el derecho del mundo a decir se acabó.
Hasta cuando, hasta cuando, hasta cuando seguir esperando?
Hasta cuando, hasta cuando, hasta cuando?
Hasta cuando, hasta cuando, hasta cuando seguir esperando?
Hasta cuando, hasta cuando, hasta cuando tendré que aguantarlo?

(riff1)
Mi vida es solo mia,hasta cuando tendre que esperar? solamente mia
hasta cuando tendre que esperar?
Mi vida es solo mia,hasta cuando tendre que esperar? solamente mia

(riff2)

Todos y cuando digo todos estoy diceindo qur todos tenemos el derecho
a vivr dignamente, tenemos derecho a morir dignamente, cuando es mayor
el miedo a la vida que a la muerte, y no hay moral que pueda oponerse
a la razón y no hay razón ni hay un dios ni leyes ni explicación
que me obligue a vivir esta lenta agonía, que me obligue a vivir enterrado en vida
Hasta cuando, hasta cuando, hasta cuando seguir esperando?
Hasta cuando, hasta cuando, hasta cuando?
Hasta cuando, hasta cuando, hasta cuando seguir esperando?
Hasta cuando, hasta cuando, hasta cuando tendré que aguantarlo?

(riff1)
Mi vida es solo mia,hasta cuando tendre que esperar? solamente mia
hasta cuando tendre que esperar?
Mi vida es solo mia,hasta cuando tendre que esperar? solamente mia

Mi vida mi muerte, Mi vida mi muerte, Mi vida mi muerte, solamente a mi me pertenece.
Mi vida mi muerte, Mi vida mi muerte, Mi vida mi muerte, solamente a mi me pertenece.

(riff1)
Mi vida es solo mia,hasta cuando tendre que esperar? solamente mia
hasta cuando tendre que esperar?
Mi vida es solo mia,hasta cuando tendre que esperar? solamente mia

(Final outro) Guitarra 1 [riff1] Guitarra2

Derecho a la authenasia derecho al suicidio
mi vida es solo mia

Derecho a la authenasia derecho al suicidio
mi vida es solo mia

Derecho a la authenasia derecho al suicidio
mi vida es solo mia

Derecho a la authenasia derecho al suicidio
mi vida es solo mia

mi vida mi muerte
E vida E muerte
mi vida mi muerte
E vida E muerte
mi vida mi muerte
E vida E muerte
mi vida mi muerte
E vida E muerte...
F#5
Final
se repite la intro i acaba --2--------
--2--------
--3--------
--4--------
--4--------
--2--------

Cualquier duda o corrección genosisus@hotmail.com
Un saludo, Arma tu mente... HC!!!!