So Far להיות

Habanot Nechama (הבנות נחמה)

Genero:

Tablatura

[tab]e|----------------------------------|
B|----5--5-------9--9----------5--5-|
G|----6--6-------9--9----------6--6-|
D|----6--6-------9--9----------7--7-|
A|-4--------4/7---------7-----------|
E|-------------------------5--------|[/tab]

[tab]e|-------------------------------|
B|-------4--4---------5--5-------|
G|-------5--5---------6--6-------|
D|-------6--6---------6--6-------|
A|-----------------4---------4/7-|
E|-0---4--------4----------------|[/tab]

[tab]e|-----------------------------|
B|--9--9-----------5--5--------|
G|--9--9-----------6--6--------|
D|--9--9-----------7--7--------|
A|---------7-------------------|
E|-------------5---------0---4-|[/tab]

????? - ?????:

[tab]e|-7---4---7---4-----------------------|
B|---------------5----7-4----4---------|
G|-----------------6------5----5-6-----|
D|-----------------------------------6-|
A|-------------------------------------|
E|-------------------------------------|[/tab]

[tab] E C#m
?????? ??????? ??? ??? ??[/tab]
[tab] Ab A
?????? ?? ????? ?????? ?? ??????[/tab]
[tab]E C#m
?? ?? ???? ??? ??[/tab]
[tab]Ab A
?? ?? ???? ??? ??[/tab]
[tab] E C#m
???? ?????? ?? ???? ?? ?????[/tab]
[tab] Ab A
?????, ????? ??????? ?????[/tab]
[tab]E C#m
????? ?????[/tab]

[tab] A
?? ?? ???? ??? ?? ??[/tab]
[tab]C#m Ab
?? ???? ??? ???? ??? ?????[/tab]

???? ????? ??? ??????

?????:

[tab] C#m E A
So far, you see the sky[/tab]
[tab] Ab C#m E A Ab
You cry, you don't know why[/tab]
[tab] C#m
Its joy, its happiness[/tab]
[tab] E A
The rainbow makes you feel high[/tab]
[tab] Ab C#m E A Ab
So far, you see the sky[/tab]

???? ???? ?????

[tab] E C#m
???? ???? ????? ?????[/tab]
[tab] A
????? ????? ????? ?????[/tab]
[tab]Ab A E C#m Ab
?? ?? ?? ????? ???? ?????[/tab]
[tab] E C#m
??? ????? ????? ???? ?????[/tab]
[tab] A
???? ?? ?? ?? ???? ??? ?? ?????[/tab]
[tab]C#m Ab
?? ??? ???? ??? ?????[/tab]
[tab] Ab A E
???? ???, ?????, ????? ???? ??????[/tab]
[tab]C#m
?? ??????? ??? ??? ??????[/tab]
[tab] A E
??? ????? ?????? ??????[/tab]
[tab]C#m Ab
?? ?? ????? ????? ?????[/tab]
[tab] E
???? ????? ????? ??????[/tab]
[tab]C#m Ab A
???? ????? ????? ????[/tab]
[tab] E
???? ????? ??? ???? ???[/tab]
[tab]Ab A
??? ????? ????[/tab]
[tab] E C#m
????? ???? ??? ??? ???[/tab]
[tab] A
????? ?? ??? ?????[/tab]
[tab]C#m Ab
?? ???? ?????? ???????[/tab]
[tab]E
?? ??? ??? ?????[/tab]
[tab] E
?? ???? ????[/tab]
[tab] Ab A
?????? ????? ????? ??????[/tab]
[tab] E C#m
?? ????? ???? ????? ??????[/tab]
[tab] Ab A
????? ?? ???? ????? ??[/tab]

?????

[tab] C#m E A Ab C#m E A Ab
So far....[/tab]
[tab] C#m E A Ab C#m E A Ab
So far....[/tab]

???? ???? ?? ??????

?????

[tab] E C#m
???? ?????? ?? ???? ?????[/tab]
[tab] Ab A
?????, ????? ??????? ?????[/tab]
[tab]E C#m
???? ?????[/tab]
[tab] A
?? ?? ???? ??? ?? ??[/tab]
[tab]C#m Ab
?? ???? ??? ???? ??? ?????[/tab]



************************************

| / Slide up


************************************