Arenas De Soledad

Habana Blues

Genero: Pop

Tablatura (Ver letra)

This is a Soundtrack song for the Movie Habana Blues. Hope you like it.
Most of the Chords are modified so I attach a little diagram of how they are made :)

Rythm pattern is very simple and goes like this: V= Down; ^= Up ; x= Mute sound. ( V ^ x x V x x x V x x )

Bm9 Bm/5* Bm/7*
0 2 2
2 3 3
2 4 3
x 5 4
2 2 2
x x x





Bm
Empezar de nuevo,
Bm9
sin destino y sin tener
Bm5*
un camino cierto que
Bm9 Bm/7*
me enseñe a no perder la fe
Bm
y escapar de este dolor
Bm9
sin pensar en lo que fue,
Bm5*
¿cuanto aguanta un corazón
Bm9 Bm/7*
sin el latido de creer?


Chorus:

[More likely, chorus part is just a picking that follows this string pattern on every chord: ]

[tab] Bm F#m7 A E
E ---------2-----------2----------0-------------0---|
B ----3-----------2-----------2------------0--------|
G --4---4-------3---3-------2---2--------1---1------|
D --------------------------------------------------|
A --------------------------------------------------|
E --------------------------------------------------|[/tab]



Bm
En lo bello en la verdad
F#m7
de la esperanza de esta sed de amar
A
en los sentimientos que se quedan
E
sueños que perduran
Bm
y busqué y subí y fui preso
F#m7
entre las alas del amor
A
sin distancia y sin recuerdos
E
en las arenas de esta soledad


Bm
Presa de un silencio roto,
Bm/7*
hijos del amanecer,
Bm7
que nunca alcanzó esa luz
Bm/7*
tan confundida en el placer
Bm
y cierro los ojos,
Bm/7*
sólo para comprender,
Bm7
cuánto aguanta un corazón
Bm/7*
sin el latido de creer.


[tab]Ending:
Bm F#m7 A E
E ---------2-----------2----------0-------------0---|
B ----3-----------2-----------2------------0--------|
G --4---4-------3---3-------2---2--------1---1------|
D --------------------------------------------------|
A --------------------------------------------------|
E --------------------------------------------------|[/tab]

Please rate and comment. If you have the solo of this song please Mail me and I'll add it to the tab.