Te Quedastes

Ha.ash

Genero: Pop

Tablatura

Esta rola le gusta mucho a mi reyna asi que va para ella.
Te quiero mucho chari.

Intro:

1|------------------------------------|
2|------------------------------------|
3|------------------------------------|
4|------9-----9-------11-------13-----|
5|----9-----9------13-------14----13--|
6|--7-----8-----11-------12-----------|


1|--------------------------------|
2|--4---------------4-------------|
3|--4--6-6-4---4h6--4--6-6-4-3-1--|
4|-----------5--------------------|
5|--------------------------------|
6|--------------------------------|




B E F# E
Por que llenastes mi sonrisa con tus besos
B E F# E
y me enseñastes a nadar en tu mar
B E F# E
por que tu modo de mirar fue mas que eso
B E F# E
fue nuestra forma de hablar.


C#
Por que al pensar en el pasado
E B F#
sabre que nunca has dejado este lugar jamas
C# E F#
por todo lo que he encontrado te llevo siempre a mi lado.


B F# E B
Por que te quedastes en mi esque puedo vivir
F# E F#
ahora se lo que es ser feliz
B F# E B
por que me he quedado en ti puedo verte partir
F# E F# E F# E
y ahora puedo decir que sin amor aprendi no tanto fue gracias a ti.


-- En este requinto tocan estos acordes : B-E-F#-E x2

1|--------------------------------|
2|--4---------------4-------------|
3|--4--6-6-4---4h6--4--6-6-4-3-1--|
4|-----------5--------------------|
5|--------------------------------|
6|--------------------------------|



B E F# E
Por que tus manos dibujaron mis deseos
B E F# E
y me dejaron soñar aun mas
B E F# E
por que supistes alimentar mis sentimientos
B E F# E
con una entera complicidad.


C#
Por que al pensar en el pasado
E B F#
veo en el futuro una posibilidad de amar
C# E F#
por todo lo que he encontrado te llevo siempre a mi lado.


B F# E B
Por que te quedastes en mi esque puedo vivir
F# E F#
ahora se lo que es ser feliz
B F# E B
por que me he quedado en ti puedo verte partir
F# E F# E F# E
y ahora puedo decir que si de amor aprendi no tanto fue gracias a ti.


-- En el requinto se llevan estos acordes: B-E-F#-E

B F# E B
Por que te quedastes en mi esque puedo vivir
F# E F#
ahora se lo que es ser feliz
B F# E B
por que me he quedado en ti puedo verte partir
F# E F# E F# E
y ahora puedo decir que si de amor he aprendido tanto fue gracias a ti.
F# E E
que si de amor he aprendido tanto fue gracias a ti.


Final:

1|-----------------------------|
2|--4-4------4-4------4-4------|
3|--4-4-6-6--4-4-6-6--4-4-6-6--|
4|-----------------------------|
5|-----------------------------|
6|-----------------------------|



Ojala y te haya gustado reyna.
Bueno dudas y comentarios a mi correo por fa: ckba17@msn.com

TE AMO CHARI.