Te Quedaste

Ha.ash

Genero: Pop

Tablatura

la cancion hay que escucharla para que le agarren el ritmo


al principio al requinto de la guitarra ba asi


-7----9-------11-----12------
-9----9--------13----14------
-9----9-------11-----15------
-----------------------------
-----------------------------
-----------------------------


despues de eso enseguida ba esto


-----------------------------
-----------------------------
-----------------------------
---4-------6---4-------------
---4-------------------------
-----------------------------

despues de eso sigue la rola



B E F# E
por que llenaste mi sonrisa con tus besos
B E F# E
y me enseñaste a nadar en tumar
B E F# E
por que tu modo de mirar fue mas que eso
B E F# E
fue nuestra forma de hablar


pre...
C#
por que al pensar en el pasado
E B F#
sabe que nunca has dejado este lugar jamas
C# E F#
por todo lo he encontrado te llevo siempre a mi lado

coro.
B F# E B
por que te quedaste en mi es que puedo vivir
F# E F# B F# E
ahora se lo que es ser feliz,`por que me quedaba en ti
B F# E
puedo verte partir,y ahora puedo decir
F# E F# E B-E-F#-E X2
que sin amor he aprendido tanto fue gracias ati

-- de ahi se repite tod desde el comienso hasta el final.

por que tus manos dibujaron mis deceos
y me dejaron soñar aun mas
por que supiste alimentar mis sentimientos
con una entera complicidad

pre..

por que a pensar en el pasado
veo un futuro una posibilidad de amar
POR por todo lo que he encontrado te llevo siempre ami lado

se repite el coro todo y lo demas de la cancion.


cualquier duda hay esta mi correo