1000x

Ha Hyunsang (하현상)

Genero:

Tablatura

[tab][INTRO]
A|--2-2-2-2--------------|--2-2-2-2--------------|
E|-0-0-0-0---------------|-0-0-0-0---------------|
C|-----------------------|-----------------------|
G|-----------------------|-----------------------|[/tab]



[tab](repeat for whole song)
A|--2-2-2-2--------------|--2-2-2-2--------------|
E|-0-0-0-0---------------|-0-0-0-0---------------|
C|-----------------------|-----------------------|
G|-----------------------|-----------------------|[/tab]

[tab]A|--2-2-2-2--------------|--2-2-2-2--------------|--2-2-2-2--------------|--2-2-2-2--------------|
E|-4-4-4-4---------------|-4-4-4-4---------------|-5-5-5-5---------------|-5-5-5-5---------------|
C|-----------------------|-----------------------|-----------------------|-----------------------|
G|-----------------------|-----------------------|-----------------------|-----------------------|[/tab]

[tab]A|--2-2-2-2--------------|--2-2-2-2--------------|
E|-----------------------|-----------------------|
C|-3-3-3-3---------------|-3-3-3-3---------------|
G|-----------------------|-----------------------|[/tab]