Señor Chichero

H3o

Genero:

Tablatura

INTRO:

AQUÍ EMPIEZA CON TROMPETAS: pero puede picar tambien con guitarra
e---------------------7-8/10--8-7-8-7-----------------
B-----------------8-10----------------10-10--8-8------
G-----------------------------------------------------
D-----------------------------------------------------
A-----------------------------------------------------
E-----------------------------------------------------
REPETIR 2 veces
e----------------7-7-7-8-7-10---14x3-13-12x2-10-10x2-12-14
B-------8-8-10-8------------------------------------------
G
D
A
E Rif2
..........:este punteo es facil ejm:14x3 solo tres veces 14 e igual
con los siguientes. pruebalo.
G7:seria mejor en este traste
e--------3-------------
B--------3-------------
G--------4------------
D--------3------------
A--------4-------------
E--------5---------

G Bm C D G
G Bm C D G

G Bm
Ayer te vi y presentí
C D G
que ya no puedo pensar en algo más que amor
G7 Bm
ojalá que tu puedas entender
C D G
que no pase otro día más asi


C
Ayer te vi
D Bm Em
y no he podido alejarme de tu amor mi amor


C
Ayer te vi
D Bm
si tu supieras cómo le duele a mi corazón
C D G
ya no te irías, te quedarías junto a mí

Repetir Rif 2
G Bm C D G

G Bm
Cuando te vi yo presentí
C Bm G
que eres culpable de mi soledad también
G7 Bm
y me quedo así sin saber qué hacer
C D G
me quedo soñando con tus besos


C
Ayer te vi
D Bm Em
y no he podido alejarme de tu amor mi amor

C
Ayer te vi
D Bm
si tu supieras cómo le duele a mi corazón
C D G7
ya no te irías, te quedarías junto a mí


E -----------------------------------------
B ------------------------------3-1-0---0--
G -------0-2-4s5-4-2-0--5-4-5-4-------2----
D -0-2-4-----------------------------------
A -----------------------------------------
E -----------------------------------------


E -----------------------------------------
B -3-3-3-1-1-1-0---1s3--1-0-1s3------------
G ---------------2---------------2-0-------
D -----------------------------------------
A -----------------------------------------
E -----------------------------------------
acompaña a este punteo:
G Bm C D G
C Bm Em


G F G F G F G F
G F G F G F G
Me gusta como te mueves cuando escuchas mi ritmo
Te veo y me fascina como lo haces tu
Me gusta como te mueves cuando escuchas mi ritmo
Te veo y me fascina ay mi amor

C D Bm Em
C D G G7

C D Bm Em
C D G
C
Ayer te vi
D Bm Em
y no he podido alejarme de tu amor mi amor


C
Ayer te vi
D Bm
si tu supieras cómo le duele a mi corazón
C D
ya no te irías, te quedarías

C
Ayer te vi
D Bm Em
y no he podido alejarme de tu amor mi amor


C
Ayer te vi
D Bm
si tu supieras cómo le duele a mi corazón
C D G
ya no te irías, te quedarías junto a mí
Repetir Rif2

G Bm C D G
G Bm C D G

este tema esta chevere y buenazo... willyams_18@hotmail.com
dedicado para una flaca en CBBm UNIVALLE