What Happened

H2o

Album: Nothing to Prove
Genero: Rock

Tablatura (Ver letra)

Tuning: standard

bass line starts it out.


[tab] F*** NO! (background guitar x3) we didn't care, About the brand of your jeans....
e|----------------------------------------------------------------------------|
B|----------------------------------------------------------------------------|
G|----------------------------------------------------------------------------|
D|-3-/-5----------------------------------------------------------------------|
A|-1-/-3--x3------------------------------------------------------------------|
E|----------------------------------------------------------------------------|[/tab]

[tab] (bridge) And at nights, it makes me mad that I should have to ask....
e|---------------------------------------------------------------------------|
B|---------------------------------------------------------------------------|
G|---------------------------------------------------------------------------|
D|---------------------------------------------------------------------------|
A|--6-6-6-6-6-6-6-6-6-6-6-6---8-8-8-8-8-8-8-8-8-8-8-8------------------------|
E|--4-4-4-4-4-4-4-4-4-4-4-4---6-6-6-6-6-6-6-6-6-6-6-6------------------------|[/tab]
[tab] (chorus) What happened to the passion?...
e|----------------------------------------------------------------------------|
B|----------------------------------------------------------------------------|
G|----------------------------------------------------------------------------|
D|--5-5-5-5-5-5-5-5-5-5-5---8-8-8-8-8-8-8-8-8-8-8-----------------------------|
A|--3-3-3-3-3-3-3-3-3-3-3---6-6-6-6-6-6-6-6-6-6-6--8-8-8-8-8-8-8-8-8-8-8------|
E|-------------------------------------------------6-6-6-6-6-6-6-6-6-6-6------|[/tab]

[tab] and the message that I love?....
e|----------------------------------------------------------------------------|
B|----------------------------------------------------------------------------|
G|----------------------------------------------------------------------------|
D|--5-----5-3--5-----5-3------------------------------------------------------|
A|--3-5-5-3-1--3-5-5-3-1------------------------------------------------------|
E|----3-3--------3-3----------------------------------------------------------|[/tab]

[tab] (chorus changes second time)
e|---------------------------------------------------------------------------|
B|---------------------------------------------------------------------------|
G|---------------------------------------------------------------------------|
D|-5-5-5-5-5-5-5-5-5-5-5-----------------------------8-8-8-8-8-8-8-8-8-8-8---|
A|-3-3-3-3-3-3-3-3-3-3-3---8-8-8-8-8-8-8-8-8-8-8-8---6-6-6-6-6-6-6-6-6-6-6---|
E|-------------------------6-6-6-6-6-6-6-6-6-6-6-6---------------------------|[/tab]

[tab] and the message that i love...
e|---------------------------------------------------------------------------|
B|---------------------------------------------------------------------------|
G|---------------------------------------------------------------------------|
D|--5-----5-3--5-----5-3-3-3-------------------------------------------------|
A|--3-5-5-3-1--3-5-5-3-1-1-1-------------------------------------------------|
E|----3-3--------3-3---------------------------------------------------------|[/tab]

[tab]And I know, that people change, And we go through different stages in life..
e|----------------------------------------------------------------------------|
B|----------------------------------------------------------------------------|
G|----------------------------------------------------------------------------|
D|--5-5-5-5-/-8-8-8-8---------------------------------------------------------|
A|--3-3-3-3-/-6-6-6-6--8-8-8-8/-5-5-5-5---------------------------------------|
E|---------------------6-6-6-6/-3-3-3-3--x7-----------------------------------|[/tab]

(starting at the bridge repeat song)


[tab]Lost (1, 2, 3, 4) lifetime ago it seems You gave up on your wildest dreams.... (guitar 1)
e|---------------------------------------------------------------------------|
B|---------------------------------------------------------------------------|
G|---------------------------------------------------------------------------|
D|---------------------------------------------------------------------------|
A|--10~-8-7-7-8-7~---10-10-8-7-7-8-3~--(fade)--------------------------------|
E|---------------------------------------------------------------------------|[/tab]
[tab] ^
(guitar 2 at same time)
e|---------------------------------------------------------------------------|
B|---------------------------------------------------------------------------|
G|---------------------------------------------------------------------------|
D|-----------------------------5-5-5-5-5-5-5-5-5-5-5-/-9-9-9-9-9-9-9-9-9-9---|
A|--7-7-7-7-7-7-7-7-7-7-7-7-7--3-3-3-3-3-3-3-3-3-3-3-/-7-7-7-7-7-7-7-7-7-7---|
E|--5-5-5-5-5-5-5-5-5-5-5-5-5------------------------------------------------|[/tab]

[tab]e|---------------------------------------------------------------------------|
B|---------------------------------------------------------------------------|
G|---------------------------------------------------------------------------|
D|--7-7-7-7-7-7-7-7-7-7------------------------------------------------------|
A|--5-5-5-5-5-5-5-5-5-5---(repeat)-------------------------------------------|
E|---------------------------------------------------------------------------|[/tab]


[tab]e|----------------------------------------------------------------------------|
B|----------------------------------------------------------------------------|
G|----------------------------------------------------------------------------|
D|--5-----5-3--5-----5-3--5-----5-3--5-----5-3-3------------------------------|
A|--3-5-5-3-1--3-5-5-3-1--3-5-5-3-1--3-5-5-3-1-1------------------------------|
E|----3-3--------3-3--------3-3--------3-3------------------------------------|[/tab]


song repeats
thats it enjoy.