Unconditional

H2o

Genero: Pop

Tablatura

H2O
Unconditional
Nothing To Prove
2008 Bridge 9 Records
Submitted by: jeremyunderground41@yahoo.com

Key: C

[tab]e|---------------------------------------------
B|---------------7-------------7---------------
G|-7--7-7--7-7-9---9--7--7-7-9---9--7----------
D|-------------------------------------9--7--7-
A|---------------------------------------------
E|---------------------------------------------[/tab]

[tab]e|-15-15-15-15-14-14-12-12-------------------12-12-14-14-
B|-------------------------15-15-12-12-15-15-------------
G|-------------------------------------------------------
D|-------------------------------------------------------
A|-------------------------------------------------------
E|-------------------------------------------------------[/tab]

[tab]e|-15-15-14-14-12-12-------------------------------
B|-------------------15-15-12-12-12-12-------------
G|-------------------------------------14-14-14-14-
D|-------------------------------------------------
A|-------------------------------------------------
E|-------------------------------------------------[/tab]

[tab]e|---------------------------------------------------------
B|---------7--------------7--------------7------7--7--7--7-
G|-7-7-7-9---9-7------7-9---9-7------7-9---9-7-------------
D|---------------9--9-----------9--9-----------------------
A|---------------------------------------------------------
E|---------------------------------------------------------[/tab]

[tab]e|--------------------------------------------------
B|-7--7--7--7--7--7--7------------------------------
G|---------------------9-7---7--7--7--7--7--7--7--7-
D|-------------------------9------------------------
A|--------------------------------------------------
E|--------------------------------------------------[/tab]