Talk Too Much

H2o

Album: Thicker Than Water
Genero: Pop

Tablatura (Ver letra)

                             TALK TOO MUCH - H20

By: Olson Patterson <xmisfitsx@hotmail.com>

"YO SUCKA, YA GOTTA BIG MOUTH!!!"

[tab]intro 1:(bass guitar)
G|----------------------|
D|----------------------|
A|------3-3---5---3-----|
E|-5-5----------------5-|[/tab]

[tab]solo: 1 solo: 2
e|---------------------------------|-------------------------------|
B|-----------play-2-times----------|----------play-2-times---------|
G|---------5~~-----7------5--------|-----7---6-----------7---6-----|
D|-7-7---------------------------7-|-5----------------5----------7-|
A|---------------------------------|-------------------------------|
E|---------------------------------|-------------------------------|[/tab]

[tab]Chords:
A G F# D C C#
e|------------------|
B|------------------|
G|----------7--5--6-|
D|-7--5--4--7--5--6-|
A|-7--5--4--5--3--4-|
E|-5--3--2----------|[/tab]