Role Model

H2o

Genero: Pop

Tablatura

Role Model - h2o

This song is really easy to play. Standard tuning (eBGDAE)

Key:

.. = Let ring
/ = Slide
x = mute string
[PM] = palm mute on bridge
[OPEN] = release mute

Intro:


[tab]e---------------------------------------------------------|
B---------------------------------------------------------|
G-----5-5-5-5-7-7-7-7-10-10-10-10-12-10-12-10-10----------|
D-----5-5-5-5-7-7-7-7-10-10-10-10-x--x--x--x---x x 4-|
A-----3-3-3-3-5-5-5-5-8--8--8--8--10-8--10-8---8----------|
E---------------------------------------------------------|[/tab]

On 4th repeat:

[tab]e--------------|
B--------------|
G--5-9-7-9-10--| x 1
D--------------|
A--------------|
E--------------|[/tab]

Verse: who can I believe in………

[tab]e----------------|
B----------------|
G--------5-5-----|
D-2-2-2--5-5-5-5-| x3
A-2-2-2--3-3-5-5-|
E-0-0-0------3-3-|[/tab]

End of 4th time Verse section x 2]

[tab]e--------------------|
B--------------------|
G-2-2-2-2-5-5-7-7----|
D-2-2-2-2-x-x-x-x----| x1
A-0-0-0-0-3-3-5-5----|
E--------------------|[/tab]


Bridge: I feel so lonely in the world…..

[tab]e---------------------------------|
B---------------------------------|
G-5-5-5-5-7-7-7-7----------10-9-7-|
D-5-5-5-5-7-7-7-7--3-3-3-3-x--x-x-|
A-3-3-3-3-5-5-5-5--3-3-3-3-8--7-5-|
E------------------1-1-1-1--------|[/tab]

[tab]e-----------------------------------|
B-----------------------------------|
G-5-5-5-5-7-7-7-7----------12-10-9--|
D-5-5-5-5-7-7-7-7--3-3-3-3-x--x--x--|
A-3-3-3-3-5-5-5-5--3-3-3-3-10-8—-7--|
E------------------1-1-1-1----------|[/tab]

Chorus: I’m making my own way…….

[tab]e---------------------------------------------------------|
B---------------------------------------------------------|
G-----5-5-5-5-7-7-7-7-10-10-10-10-12--10-12-10-10---------|
D-----5-5-5-5-7-7-7-7-10-10-10-10-x---x--x--x--x x 4-|
A-----3-3-3-3-5-5-5-5-8--8--8--8--10--8--10-8--8----------|
E---------------------------------------------------------|[/tab]


4th time:

[tab]e--------------|
B--------------|
G--5-9-7-9-10--| x 1
D--------------|
A--------------|
E--------------|[/tab]

Solo

Guitar 1

[tab]e--------------------------------------------------------------|
B--------------------------------------------------------------|
G--5-9-7-9-10-10-10-10-5-9-7-5-9-5/12-12-12-12-----------------|
D--------------------------------------------------------------|
A--------------------------------------------------------------|
E--------------------------------------------------------------|[/tab]

Guitar 2

[tab]e------------------------------------------ e------------|
B------------------------------------------ B------------|
G-----5-5-5-5-7-7-7-7-10-10-10-10---------- G-5-5-5-5----|
D-----5-5-5-5-7-7-7-7-10-10-10-10---------- x 2 D-5-5-5-5----|
A-----3-3-3-3-5-5-5-5-8--8--8--8----------- A-3-3-3-3----|
E------------------------------------------ E------------|[/tab]

[tab] [PM] [OPEN]
G------------------------|
D-3-3-3-3--3-3-3-3-3-3-3-|
A-3-3-3-3--3-3-3-3-3-3-3-|
E-1-1-1-1--1-1-1-1-1-1-1-|[/tab]


Interlude and so I’m turning off the TV……..

Guitar 1

[tab]e---------------------------------------------------------|
B---------------------------------------------------------|
G-5-5-5-5-2-2-2-2-----------------5-5-5-5-2-2-2-2---------|
D-5-5-5-5-2-2-2-2-3-3-3-3-5-5-5-5-5-5-5-5-2-2-2-2-3-3-3-3-|
A-3-3-3-3-0-0-0-0-3-3-3-3-5-5-5-5-3-3-3-3-0-0-0-0-3-3-3-3-|
E-----------------1-1-1-1-3-3-3-3-----------------1-1-1-1-|[/tab]

[tab]G-----5-.-7-.----|
D-----5-.-7-.3---|
A-----3-.-5-.3---|
E------------1---|[/tab]

Guitar 2

[tab]e---------------------------|
B---------------------------|
G –5-9-7---9-7-5-----5-7-10-|
D-------9-------7-----------|
A---------------------------|
E---------------------------|[/tab]

Interlude part 2: my only hope hope……

[tab]e------------------|
B------------------|
G[PM]---------5----|..
D-3-3-3-3-3-3-5----|..
A-3-3-3-3-3-3-3----|..
E-1-1-1-1-1-1------|[/tab]


[tab]e---------------|
B---------------|
G-5/12----------|
D-x/x-----------|
A-3/10----------|
E---------------|[/tab]

Guitar 1 I feel so lonely in the world…….

[tab]e----------------|
B----------------|
G-10-10-10-10----|
D-x--x---x-x-----| x5
A-8--8---8—8-----|
E----------------|[/tab]

Guitar 2 (on 3rd time)

[tab][PM]
e-----------------------------------------|
B-----------------------------------------|
G---------7-7-7-7-5-5-5-5-5-5-5-5---------|
D-5-5-5-5-7-7-7-7-5-5-5-5-5-5-5-5---------|
A-5-5-5-5-5-5-5-5-3-3-3-3-3-3-3-3---------|
E-3-3-3-3---------------------------------|[/tab]

Chorus x2 to finish

Finish on C5