Follow The Three Way

H2o

Genero:

Tablatura

                       FOLLOW THE THREE WAY - H2O

By:Keith (cause-for-alarm@juno.com)

[tab]Intro/Verse
e|--------------------------------------------------------------------|
B|--------------------------------------------------------------------|
G|-----------5-5-----------------5-5----------------------5-5---------|
D|-7-7--3-3--5-5--5-5---7-7--3-3-5-5--5-5--7-7--3-3--5-5--5-5---------|
A|-7-7--3-3--3-3--5-5---7-7--3-3-3-3--5-5--7-7--3-3--5-5--3-3---------|
E|-5-5--1-1-------3-3---5-5--1-1------3-3--5-5--1-1--3-3--------------|[/tab]

[tab]e|--------------------------------------------------------------------|
B|--------------------------------------------------------------------|
G|---------5-5-5-5-5--------------------------------------------------|
D|5-5-5-5--5-5-5-5-5--------------------------------------------------|
A|5-5-5-5--3-3-3-3-3--------------------------------------------------|
E|3-3-3-3-------------------------------------------------------------|[/tab]

[tab]chorus
e|--------------------------------------------------------------------|
B|-----------------3--3-----------------------------------------------|
G|-----------------5^-5^----------------------------------------------|
D|3-3--3-3------------------------------------------------------------|
A|3-3--3-3------------------------------------------------------------|
E|1-1--1-1------------------------------------------------------------|[/tab]

[tab]I don't care what you say I follow the 3 way
(faintly) (repeat a million times)
e|--------------------------------------------------------------------|
B|--------------------------------------------------------------------|
G|9-9-9-9-9-9-9-9-9-9-9-9-9-9-9---------------------------------------|
D|7-7-7-7-7-7-7-7-7-7-7-7-7-7-7---------------------------------------|
A|--------------------------------------------------------------------|
E|--------------------------------------------------------------------|[/tab]