5 Yr Plan

H2o

Album: H2O
Genero: Pop

Tablatura (Ver letra)

-------------------------------------------------------------------------------
5 Yr. Plan - H20
-------------------------------------------------------------------------------
Tabbed by: Niko

5 Yr. Plan, the first song off of H2O's self titled debut.
O.L.O.C. PMA!

Tuning:EADGBe

[tab]Intro:
e|---------------------------------------------------------------------------|
B|---------------------------------------------------------------------------|
G|--7-7-7-9-----7-7-7-9-----7-7-7-9------7-7-7-9-----------------------------|
D|--7-7-7-9-----7-7-7-9-----7-7-7-9------7-7-7-9-----------------------------|
A|--5-5-5-7-----5-5-5-7-----5-5-5-7------5-5-5-7-----------------------------|
E|---------------------------------------------------------------------------|[/tab]

[tab]Verse 1
e|---------------------------------------------------------------------------|
B|---------------------------------------------------------------------------|
G|--7-7-7-9-9-9-9-9-9-9-9----7-7-7-9-9-9-9-9-9-9-9----7-7-7-9-9-9-9-9-9-9-9--|
D|--7-7-7-9-9-9-9-9-9-9-9----7-7-7-9-9-9-9-9-9-9-9----7-7-7-9-9-9-9-9-9-9-9--|
A|--5-5-5-7-7-7-7-7-7-7-7----5-5-5-7-7-7-7-7-7-7-7----5-5-5-7-7-7-7-7-7-7-7--|
E|---------------------------------------------------------------------------|[/tab]

[tab]e|---------------------------------------------------------------------------|
B|---------------------------------------------------------------------------|
G|--7-7-7-9-9-9-9-9-9-9-9----7-7-7-9-9-9-9-9-9-9-9----7-7-7-9-9-9-9-9-9-9-9--|
D|--7-7-7-9-9-9-9-9-9-9-9----7-7-7-9-9-9-9-9-9-9-9----7-7-7-9-9-9-9-9-9-9-9--|
A|--5-5-5-7-7-7-7-7-7-7-7----5-5-5-7-7-7-7-7-7-7-7----5-5-5-7-7-7-7-7-7-7-7--|
E|---------------------------------------------------------------------------|[/tab]

[tab]e|---------------------------------------------------------------------------|
B|---------------------------------------------------------------------------|
G|--7-7-7-9-9-9-9-9-9-9-9----7-7-7-9-9-9-9-9-9-9-9---------------------------|
D|--7-7-7-9-9-9-9-9-9-9-9----7-7-7-9-9-9-9-9-9-9-9---------------------------|
A|--5-5-5-7-7-7-7-7-7-7-7----5-5-5-7-7-7-7-7-7-7-7---------------------------|
E|---------------------------------------------------------------------------|[/tab]

[tab]Chorus 1
e|---------------------------------------------------------------------------|
B|---------------------------------------------------------------------------|
G|--5-5-5-5-5-5-10-10-9-9-9-9-9-9-9-9---7-7-7-7-7-7-10-10-9-9-9-9-9-9-9-9----|
D|--5-5-5-5-5-5-10-10-9-9-9-9-9-9-9-9---7-7-7-7-7-7-10-10-9-9-9-9-9-9-9-9----|
A|--3-3-3-3-3-3--8--8-7-7-7-7-7-7-7-7---5-5-5-5-5-5--8--8-7-7-7-7-7-7-7-7----|
E|---------------------------------------------------------------------------|[/tab]

[tab]e|---------------------------------------------------------------------------|
B|---------------------------------------------------------------------------|
G|--5-5-5-5-5-5-10-10-9-9-9-9-9-9-9-9---7-7-7-7-7-7-10-10-9-9-9-9-9-9-9-9----|
D|--5-5-5-5-5-5-10-10-9-9-9-9-9-9-9-9---7-7-7-7-7-7-10-10-9-9-9-9-9-9-9-9----|
A|--3-3-3-3-3-3--8--8-7-7-7-7-7-7-7-7---5-5-5-5-5-5--8--8-7-7-7-7-7-7-7-7----|
E|---------------------------------------------------------------------------|[/tab]

[tab]Verse 2
e|---------------------------------------------------------------------------|
B|---------------------------------------------------------------------------|
G|--7-7-7-9-9-9-9-9-9-9-9----7-7-7-9-9-9-9-9-9-9-9----7-7-7-9-9-9-9-9-9-9-9--|
D|--7-7-7-9-9-9-9-9-9-9-9----7-7-7-9-9-9-9-9-9-9-9----7-7-7-9-9-9-9-9-9-9-9--|
A|--5-5-5-7-7-7-7-7-7-7-7----5-5-5-7-7-7-7-7-7-7-7----5-5-5-7-7-7-7-7-7-7-7--|
E|---------------------------------------------------------------------------|[/tab]

[tab]e|---------------------------------------------------------------------------|
B|---------------------------------------------------------------------------|
G|--7-7-7-9-9-9-9-9-9-9-9----7-7-7-9-9-9-9-9-9-9-9----7-7-7-9-9-9-9-9-9-9-9--|
D|--7-7-7-9-9-9-9-9-9-9-9----7-7-7-9-9-9-9-9-9-9-9----7-7-7-9-9-9-9-9-9-9-9--|
A|--5-5-5-7-7-7-7-7-7-7-7----5-5-5-7-7-7-7-7-7-7-7----5-5-5-7-7-7-7-7-7-7-7--|
E|---------------------------------------------------------------------------|[/tab]

[tab]e|---------------------------------------------------------------------------|
B|---------------------------------------------------------------------------|
G|--7-7-7-9-9-9-9-9-9-9-9----7-7-7-9-9-9-9-9-9-9-9---------------------------|
D|--7-7-7-9-9-9-9-9-9-9-9----7-7-7-9-9-9-9-9-9-9-9---------------------------|
A|--5-5-5-7-7-7-7-7-7-7-7----5-5-5-7-7-7-7-7-7-7-7---------------------------|
E|---------------------------------------------------------------------------|[/tab]

[tab]Chorus 2
e|---------------------------------------------------------------------------|
B|---------------------------------------------------------------------------|
G|--5-5-5-5-5-5-10-10-9-9-9-9-9-9-9-9---7-7-7-7-7-7-10-10-9-9-9-9-9-9-9-9----|
D|--5-5-5-5-5-5-10-10-9-9-9-9-9-9-9-9---7-7-7-7-7-7-10-10-9-9-9-9-9-9-9-9----|
A|--3-3-3-3-3-3--8--8-7-7-7-7-7-7-7-7---5-5-5-5-5-5--8--8-7-7-7-7-7-7-7-7----|
E|---------------------------------------------------------------------------|[/tab]

[tab]e|---------------------------------------------------------------------------|
B|---------------------------------------------------------------------------|
G|--5-5-5-5-5-5-10-10-9-9-9-9-9-9-9-9---7-7-7-7-7-7-10-10-9-9-9-9-9-9-9-9----|
D|--5-5-5-5-5-5-10-10-9-9-9-9-9-9-9-9---7-7-7-7-7-7-10-10-9-9-9-9-9-9-9-9----|
A|--3-3-3-3-3-3--8--8-7-7-7-7-7-7-7-7---5-5-5-5-5-5--8--8-7-7-7-7-7-7-7-7----|
E|---------------------------------------------------------------------------|[/tab]

[tab]Bridge
e|---------------------------------------------------------------------------|
B|---------------------------------------------------------------------------|
G|---------------------------------------------------------------------------|
D|-------6-------6--------6--------------------------------------------------|
A|---------------------------------------------------------------------------|
E|--0----4-------4--------4----4\--------------------------------------------|[/tab]

[tab]Verse 3
e|---------------------------------------------------------------------------|
B|---------------------------------------------------------------------------|
G|--7-7-7-9-9-9-9-9-9-9-9----7-7-7-9-9-9-9-9-9-9-9----7-7-7-9-9-9-9-9-9-9-9--|
D|--7-7-7-9-9-9-9-9-9-9-9----7-7-7-9-9-9-9-9-9-9-9----7-7-7-9-9-9-9-9-9-9-9--|
A|--5-5-5-7-7-7-7-7-7-7-7----5-5-5-7-7-7-7-7-7-7-7----5-5-5-7-7-7-7-7-7-7-7--|
E|---------------------------------------------------------------------------|[/tab]

[tab]e|---------------------------------------------------------------------------|
B|---------------------------------------------------------------------------|
G|--7-7-7-9-9-9-9-9-9-9-9----7-7-7-9-9-9-9-9-9-9-9----7-7-7-9-9-9-9-9-9-9-9--|
D|--7-7-7-9-9-9-9-9-9-9-9----7-7-7-9-9-9-9-9-9-9-9----7-7-7-9-9-9-9-9-9-9-9--|
A|--5-5-5-7-7-7-7-7-7-7-7----5-5-5-7-7-7-7-7-7-7-7----5-5-5-7-7-7-7-7-7-7-7--|
E|---------------------------------------------------------------------------|[/tab]

[tab]e|---------------------------------------------------------------------------|
B|---------------------------------------------------------------------------|
G|--7-7-7-9-9-9-9-9-9-9-9----7-7-7-9-9-9-9-9-9-9-9---------------------------|
D|--7-7-7-9-9-9-9-9-9-9-9----7-7-7-9-9-9-9-9-9-9-9---------------------------|
A|--5-5-5-7-7-7-7-7-7-7-7----5-5-5-7-7-7-7-7-7-7-7---------------------------|
E|---------------------------------------------------------------------------|[/tab]

[tab]Chorus 3
e|---------------------------------------------------------------------------|
B|---------------------------------------------------------------------------|
G|--5-5-5-5-5-5-10-10-9-9-9-9-9-9-9-9---7-7-7-7-7-7-10-10-9-9-9-9-9-9-9-9----|
D|--5-5-5-5-5-5-10-10-9-9-9-9-9-9-9-9---7-7-7-7-7-7-10-10-9-9-9-9-9-9-9-9----|
A|--3-3-3-3-3-3--8--8-7-7-7-7-7-7-7-7---5-5-5-5-5-5--8--8-7-7-7-7-7-7-7-7----|
E|---------------------------------------------------------------------------|[/tab]

[tab]e|---------------------------------------------------------------------------|
B|---------------------------------------------------------------------------|
G|--5-5-5-5-5-5-10-10-9-9-9-9-9-9-9-9---7-7-7-7-7-7-10-10-9-9-9-9-9-9-9-9----|
D|--5-5-5-5-5-5-10-10-9-9-9-9-9-9-9-9---7-7-7-7-7-7-10-10-9-9-9-9-9-9-9-9----|
A|--3-3-3-3-3-3--8--8-7-7-7-7-7-7-7-7---5-5-5-5-5-5--8--8-7-7-7-7-7-7-7-7----|
E|---------------------------------------------------------------------------|[/tab]

[tab]Outro
e|---------------------------------------------------------------------------|
B|---------------------------------------------------------------------------|
G|--7-7-7-9-----7-7-7-9-----7-7-7-9------7-7-7-9-----7-7-7-9-----------------|
D|--7-7-7-9-----7-7-7-9-----7-7-7-9------7-7-7-9-----7-7-7-9-----------------|
A|--5-5-5-7-----5-5-5-7-----5-5-5-7------5-5-5-7-----5-5-5-7-----------------|
E|---------------------------------------------------------------------------|[/tab]

End!

************************************

| / slide up
| \ slide down
| h hammer-on
| p pull-off
| ~ vibrato
| + harmonic
| x Mute note
| b Bend
| pb Pre-bend
| br Bend release
| pbr Pre-bend release
| brb Bend release bend

************************************