Pollution

H

Album: Here
Genero: Rock Pop

Tablatura (Ver letra)

any questions or comments...stangmatt1965@yahoo.com

[tab]strum than stop all sound
--------------------|---------------------------|
--------------------|---------------------------|
---------7-5-4----- |---------------------------|
----5-5--7-5-4----- |----5----------------------|
----5-5--5-3-2---3x |----3----------------------|
----3-3-------------|----3----------------------|[/tab]

[tab]Verse
strum(again, listen to song)
--------------------------------------|
--------------------------------------|
------------7--5----------------------|
---5--5--5--7--5----------------------|
---5--5--5--5--3----------------------|
---3--3--3----------------------------|[/tab]

[tab]Lead
-----------------------------------------------|
12--10--13--12--8------10--12--8------10--8----|
-------------------11-------------11-----------|
-----------------------------------------------|
-----------------------------------------------|
-----------------------------------------------|[/tab]
[tab]Bridge
-------------------------------|--------|
-------------------------------|--------|
-------------------------------|--7-7---|
-2--2--3--3--5--5--5--5--------|--7-7---|
-2--2--3--3--5--5--5--5--x4----|--5-5---|
-0--0--1--1--3--3--3--3--------|--------|
"now i can't live without you"[/tab]


[tab]Chorus
-------------------|
-------------------|
---------7-5-4-----|
----5-5--7-5-4-----|
----5-5--5-3-2-----|
----3-3------------|[/tab]