Time Of My Life

H-blockx

Genero: Pop

Tablatura

H-Blockx - Time Of My Life

Intro: 80 Bpm
[tab]D A Bm A
Sometimes I'm just thinking[/tab]
[tab]D A G D/F# Em
That I got the best time of my life[/tab]
[tab]D A G A
I've been with my girl for seven years now[/tab]
[tab]D A G A
And I got the sweetest dog, that trust me forever[/tab]


Verse 1: 186 Bpm
[tab]D A Bm A
After school I took my chances[/tab]
[tab]D A G D/F# Em
Continued to do the things I love[/tab]
[tab]D A G A
And now I find that I was right[/tab]
[tab]D A G A
I'm 26 now still I do what I want to[/tab]


Pre-Chorus: Half Time Feel
[tab]Bm A
And the days are passing by[/tab]
[tab]Bm G A D
I should realize that I've got the time of my life[/tab]


Chorus: Double Time Feel
[tab] A Bm A D
(Ahh) - Time of my life[/tab]
[tab] A Em D/F# G D
(Ahh) - Time of my life[/tab]
[tab] A Bm A D
And the days are passing by (Ahh) - Time of my life[/tab]
[tab] A Em D/F# G
And the days are passing by (Ahh) [/tab]


[tab]Guitar Break: Normal Time Feel
PM PMPM PM
E||-----------------------------||
B||-----------------------------||
G||*---------------------------*||
D||*-------------4----5--4--4--*|| 4x
A||---5--5-5--5--5----5--5--5---||
E||-----------------------------||[/tab]


Verse 2:
Now I sit here thinking
About the best time of my life
So many years I've been with my band now
And four of my best friends they still trust me forever


Pre-Chorus: Half Time Feel
And the days are passing by
Now I realize, still I've got the time of my life


Chorus: + Background Vocals (Ahhh) / Double time Feel
Time of my life
And the days are passing by - Time of my life
Time of my life
And the days are passing by


[tab]Bass Break: Normal Time Feel
D
G||-11-11-11-9-9-9-------|-----------------------|
D||----------------12-12-|-12-11-11-11-9-9-------|
A||----------------------|-----------------12-12-|
E||----------------------|-----------------------|[/tab]

[tab] A
|----------------------|----------------------|
|-11-11-11-9-9-9-------|----9-9-9-11-11-12-12-|
|----------------12-12-|-12-------------------|
|---------------------------------------------|[/tab]

[tab] D
|-11-11-11-9-9-9-------|-----------------------|
|----------------12-12-|-12-11-11-11-9-9-------|
|----------------------|-----------------12-12-|
|----------------------|-----------------------|[/tab]

[tab] Em D/F# G
|-----------------|-----------------------|
|-----------------|-----------------------|
|-7-7-7-7-7---9---|-10-----10-10-10-10-10-|
|-----------------|-----------------------|[/tab]


Pre-Chorus: Half Time Feel
And still the days are passing by
Now I realize, still I've got the time of my life


Out-Chorus: + Background Vocals (Ahhh) / Doubletime Feel
Time of my life
And the days are passing by - Time of my life
And the time is passing, time is passing by - Time of my life
I've got the time of my life - Time of my life

And the days are passing by - Time of my life
I've got the, I've got the time of my life - Time of my life
Days passing, days passing by - Time of my life
I've got the time of my life - Time of my life