The Power

H-blockx

Album: Get in the Ring
Genero: Pop

Tablatura (Ver letra)

Band: H-blockx
Song: The Power
Tabbed by : elliot smith (elliot_smith01@hotmail.com)

Ok this i cant find this tab anywhere on the net so i sat down and figured it out
i think the chorus is a little off but for a 1st atempt it aint that bad!

Tuning: Drop Db if this dunt sound rite the try just drop D

[tab]Intro
eb:------------------------------------------------
bb:------------------------------------------------
gb:------------------------------------------------
db:--xx-0-x-x-xx-5-x-x-xx-0-x-x-xx-5-x-------------
ab:--xx-0-x-x-xx-5-x-x-xx-0-x-x-xx-5-x-------------
db:--xx-0-x-x-xx-5-x-x-xx-0-x-x-xx-5-x-------------
pm .. . . .. . . .. . . .. .[/tab]

[tab]eb:------------------------
bb:--------------------5^-- <--Not sure bout this note but it sounds fine only use this
gb:------------------------ note on the 2nd time round (use wah)
db:-00-22-5-2-2h(3p2)-------
ab:-00-22-5-2-2h(3p2)------- x8
db:-00-22-5-2-2h(3p2)-------
^--i think he hammers on and pulls of :s but if not the just let the 2 ring out a bit, u choose!
Verse [/tab]

[tab]eb:-----------
bb:----------- This is heard faintly in the background so just play this a few times
gb:-----------
db:-xx-0------
ab:-xx-0------
db:-xx-0------[/tab]

Pre chorus

[tab]eb:-----------------------------
bb:-5^--------------------------
gb:-----------------------------
db:---0-22/5\2-2h3p2------------ x4
ab:-----------------------------
db:-----------------------------[/tab]

[tab]eb:------------------------
bb:--------------------5^--
gb:------------------------ x8
db:-00-22-5-2-2h3p2--------
ab:-00-22-5-2-2h3p2--------
db:-00-22-5-2-2h3p2--------[/tab]

Verse

[tab]eb:-----------
bb:-----------
gb:-----------
db:-xx-0------
ab:-xx-0------
db:-xx-0------[/tab]

Pre chorus

[tab]eb:-----------------------------
bb:-5^--------------------------
gb:-----------------------------
db:---0-22/5\2-2h3p2------------ x4
ab:-----------------------------
db:-----------------------------[/tab]

[tab]eb:------------------------
bb:--------------------5^--
gb:------------------------ x8
db:-00-22-5-2-2h3p2--------
ab:-00-22-5-2-2h3p2--------
db:-00-22-5-2-2h3p2--------[/tab]

[tab]eb:------------------------------------
bb:------------------------------------
gb:----------------------9999----------
db:-00-xx-00-xx-00-xx-00-xxxx---------- x4
ab:-00-xx-00-xx-00-xx-00-7777----------
db:-00-xx-00-xx-00-xx-00---------------[/tab]

[tab]eb:---------------------------------------------------
bb:---------------------------------------------------
gb:---------------------------------------------------
db:--xx-0-x-x-xx-5-x-x-xxx-0-x-x-xxxx-5-x-------------
ab:--xx-0-x-x-xx-5-x-x-xxx-0-x-x-xxxx-5-x------------- Intro but add more pm and speed up
db:--xx-0-x-x-xx-5-x-x-xxx-0-x-x-xxxx-5-x------------- the pms a bit where there are
pm .. . . .. . . ... . . .... . more than the intro[/tab]

[tab]eb:------------------------
bb:--------------------5^--
gb:------------------------ x8
db:-00-22-5-2-2h3p2--------
ab:-00-22-5-2-2h3p2--------
db:-00-22-5-2-2h3p2--------[/tab]

[tab]End on
eb:------------------------------------
bb:------------------------------------
gb:----------------------9999----------
db:-00-xx-00-xx-00-xx-00-xxxx---------- x2
ab:-00-xx-00-xx-00-xx-00-7777----------
db:-00-xx-00-xx-00-xx-00---------------[/tab]

thats basically it!! send corrections to elliot_smith01@hotmail.com

DUNT COPY IT PLZ!! :)