Move

H-blockx

Album: Time to Move
Genero: Pop Rock

Tablatura (Ver letra)

This was the european breakthrough hit for the German crossover band
H-Blockx, taken from their debut album. A great party tune.
Although the song is driven by a bass riff, the guitar plays essentially
the same. The timing you'll have to find out for yourself, just listen
to the song closely.

[tab]INTRO:
Fig.1
e -------------------------------------|
b -------------------------------------|
g -------------------------------------|
D -------------------------------------|
A ---7-6-5-3---------------------------|
E -0---------0-3-5-6-5-3-0-------------|[/tab]
[tab]Fig.2
e -------------------------------------|
b -------------------------------------|
g -------------------------------------|
D --------------------5----------------|
A ---7-6-5-3---0-2---------------------|
E -0---------0-----3-------------------|[/tab]
[tab]Fig.1
e -------------------------------------|
b -------------------------------------|
g -------------------------------------|
D -------------------------------------|
A ---7-6-5-3---------------------------|
E -0---------0-3-5-6-5-3-0-------------|[/tab]
[tab]Fig.3
e -------------------------------------|
b -------------------------------------|
g -------------------------------------|
D -------------------------------------|
A ---7-6-5-3---------------------------|
E -0---------0-3-0-5-0-6-0-7-----------|[/tab]

MAIN RIFF/CHORUS:

[tab]e -------------------------------------|
b -------------------------------------|
g -------------------------------------|
D -------------------------------------|
A ---7-6-5-------7-6-5-----------------|
E -0-------5-6-0-------5-6-------------|[/tab]

[tab]e -------------------------------------|
b -------------------------------------|
g -------------------------------------|
D ---------------------5---------------|
A ---7-6-5-------7-6-5-----------------|
E -0-------5-6-0-----------------------|[/tab]

VERSE:
The verse riff is the same as the intro, only fig.2 is swapped
with fig.3 in the order of playing.

POST-CHORUS:

[tab]e -------------------------------------|
b -------------------------------------|
g -------------------------------------|
D -2----2----2-------------------------|
A -2----2----2-------------------------|
E -0----0----0----3-0-5-0-6-0-7-0------|[/tab]

INSTRUMENTAL BREAK AFTER 2ND CHORUS:

[tab]e -------------------------------------|
b -------------------------------------|
g -------------------------------------|
D -------------------------------------| repeat several times
A -----7-6-5-0------7-6-5-0------------|
E -0-0----------0-0--------------------|[/tab]

That's about it for this song. In reality, it's easy as hell, it's only
one single riff which is played slightly different in verse and chorus.
For guitar, i think you should use some Rage Against The Machine-Style
distortion. Enjoy this great song!