You Got Me

G-eazy

Album: When It’s Dark Out
Genero: Rap

Tablatura (Ver letra)

[tab][Hook]
e|--------|--------|--------|--------|---|
B|--------|--------|--------|--------|---|
G|5-------|5-------|5-------|5-------|5--|
D|6--6-4-3|6--6-4-3|6--6-4-3|6--6-4-3|6--|
A|6--6-4-3|6--6-4-3|6--6-4-3|6--6-4-3|6--|
E|4--4-2-1|4--4-2-1|4--4-2-1|4--4-2-1|4--|[/tab]

[tab][Verse 1]
e|--------|--------|--------|--------|--------|--------|---|
B|--------|--------|--------|--------|--------|--------|---|
G|5-------|5-------|5-------|5-------|5-------|5-------|5--|
D|6--6-4-3|6--6-4-3|6--6-4-3|6--6-4-3|6--6-4-3|6--6-4-3|6--|
A|6--6-4-3|6--6-4-3|6--6-4-3|6--6-4-3|6--6-4-3|6--6-4-3|6--|
E|4--4-2-1|4--4-2-1|4--4-2-1|4--4-2-1|4--4-2-1|4--4-2-1|4--|[/tab]

[tab][Hook]
e|--------|--------|--------|--------|---|
B|--------|--------|--------|--------|---|
G|5-------|5-------|5-------|5-------|5--|
D|6--6-4-3|6--6-4-3|6--6-4-3|6--6-4-3|6--|
A|6--6-4-3|6--6-4-3|6--6-4-3|6--6-4-3|6--|
E|4--4-2-1|4--4-2-1|4--4-2-1|4--4-2-1|4--|[/tab]

[tab][Verse 2]
e|--------|--------|--------|--------|--------|--------|---|
B|--------|--------|--------|--------|--------|--------|---|
G|5-------|5-------|5-------|5-------|5-------|5-------|5--|
D|6--6-4-3|6--6-4-3|6--6-4-3|6--6-4-3|6--6-4-3|6--6-4-3|6--|
A|6--6-4-3|6--6-4-3|6--6-4-3|6--6-4-3|6--6-4-3|6--6-4-3|6--|
E|4--4-2-1|4--4-2-1|4--4-2-1|4--4-2-1|4--4-2-1|4--4-2-1|4--|[/tab]

[tab][Hook]
e|--------|--------|--------|--------|---|
B|--------|--------|--------|--------|---|
G|5-------|5-------|5-------|5-------|5--|
D|6--6-4-3|6--6-4-3|6--6-4-3|6--6-4-3|6--|
A|6--6-4-3|6--6-4-3|6--6-4-3|6--6-4-3|6--|
E|4--4-2-1|4--4-2-1|4--4-2-1|4--4-2-1|4--|[/tab]

[tab][Bridge]
e|--------|--------|
B|--------|--------|
G|5-------|5-------|
D|6--6-4-3|6--6-4-3|
A|6--6-4-3|6--6-4-3|
E|4--4-2-1|4--4-2-1|[/tab]

[tab][Hook]
e|--------|--------|--------|--------|---|
B|--------|--------|--------|--------|---|
G|5-------|5-------|5-------|5-------|5--|
D|6--6-4-3|6--6-4-3|6--6-4-3|6--6-4-3|6--|
A|6--6-4-3|6--6-4-3|6--6-4-3|6--6-4-3|6--|
E|4--4-2-1|4--4-2-1|4--4-2-1|4--4-2-1|4--|[/tab]

[tab][Some kind of melody line u can do between parts]
e|--------|11-11-10-9|--------|11-11-10-9|
B|9--9-7-6|9---9-7--6|9--9-7-6|9---9-7--6|

G|--------|----------|--------|----------|
D|--------|----------|--------|----------|
A|--------|----------|--------|----------|
E|--------|----------|--------|----------|[/tab]