Sad Boy

G-eazy

Genero: Rap

Tablatura

[Intro]

[tab]e|--------|--------|-----------|------|
B|---7-7-7|-5-7-7-7|-5-10-10-10|-10-10| X4
G|-4------|--------|-----------|------|
D|--------|--------|-----------|------|
A|--------|--------|-----------|------|
E|--------|--------|-----------|------|[/tab]

[Verse 1]

[tab]e|--------|--------|-----------|------|
B|---7-7-7|-5-7-7-7|-5-10-10-10|-10-10| X8
G|-4------|--------|-----------|------|
D|--------|--------|-----------|------|
A|--------|--------|-----------|------|
E|--------|--------|-----------|------|[/tab]

[Hook]

[tab]e|--------|--------|-----------|------|
B|---7-7-7|-5-7-7-7|-5-10-10-10|-10-10| X4
G|-4------|--------|-----------|------|
D|--------|--------|-----------|------|
A|--------|--------|-----------|------|
E|--------|--------|-----------|------|[/tab]

[Verse 2]

[tab]e|--------|--------|-----------|------|
B|---7-7-7|-5-7-7-7|-5-10-10-10|-10-10| X8
G|-4------|--------|-----------|------|
D|--------|--------|-----------|------|
A|--------|--------|-----------|------|
E|--------|--------|-----------|------|[/tab]

[Hook]

[tab]e|--------|--------|-----------|------|
B|---7-7-7|-5-7-7-7|-5-10-10-10|-10-10| X4
G|-4------|--------|-----------|------|
D|--------|--------|-----------|------|
A|--------|--------|-----------|------|
E|--------|--------|-----------|------|[/tab]

[Outro] (the slide hammer on-pull off part played with some kind of synth on top)

[tab]e|--------|--------|------------|------|--------|--------|-----------|------|
B|---7-7-7|-5-7-7-7|-5\10b-8h10p|-8h10p|---7-7-7|-5-7-7-7|-5-10-10-10|-10-10| X2
G|-4------|--------|------------|------|-4------|--------|-----------|------|
D|--------|--------|------------|------|--------|--------|-----------|------|
A|--------|--------|------------|------|--------|--------|-----------|------|
E|--------|--------|------------|------|--------|--------|-----------|------| [/tab]

[tab]e|--------|--------|-----------|------|
B|---7-7-7|-5-7-7-7|-5-10-10-10|-10-10|
G|-4------|--------|-----------|------|
D|--------|--------|-----------|------|
A|--------|--------|-----------|------|
E|--------|--------|-----------|------|[/tab]

************************************

| h Hammer-on
| p Pull-off
| \ Slide down
| b Bend

************************************