Remember You

G-eazy

Genero: Rap

Tablatura

-------------------------------------------------------------------------------
Remember You - G-Eazy
-------------------------------------------------------------------------------
Tabbed by: Mike R


[tab]e|---------------------------------------------------------------------------|
B|---------------------------------------------------------------------------|
G|---7---7h9p7---7-2--------12----12h14p12----12--14-------------------------|
D|---------------------------------------------------------------------------|
A|---------------------------------------------------------------------------|
E|--7--7------7----2------12---12----------12-----14-------------------------|[/tab]

[tab]e|---------------------------------------------------------------------------|
B|---------------------------------------------------------------------------|
G|---7---7h9p7---7-2--------------------------7\6----------------------------|
D|---------------------------------------------------------------------------|
A|--------------------------10----10-----------------------------------------|
E|--7--7------7----2------12---12--------------------------------------------|[/tab]


[tab]This plays through the hook and the verses
e|---------------------------------------------------------------------------|
B|---------------------------------------------------------------------------|
G|----7----7-------2---2--------12-----12--------14----14--------------------|
D|---------------------------------------------------------------------------|
A|---------------------------------------------------------------------------|
E|--7----7-------2---2-------12-----12--------14----14-----------------------|[/tab]


************************************

| h Hammer-on
| p Pull-off
| \ Slide down

************************************