Intro

G-eazy

Genero: Rap

Tablatura

[Intro]

[tab]e|-0-5-1--|
B|-------3| X4 (but goes on in the background all the song)
G|--------|
D|--------|
A|--------|
E|--------|[/tab]

[tab]e|------------|-----------|
B|------------|-----------|
G|------------|-----------|
D|------------|-----------|
A|-5~-4~-3~-2~|-1~--------| X1 (all done with vibrato)
E|------------|---5~-3~-1~|[/tab]

[tab]e|----|----|----|----|----|----|----|----|
B|----|----|----|----|----|----|----|----|
G|-7-7|-6-6|-5-5|-4-4|-3-3|----|----|----|
D|-7-7|-6-6|-5-5|-4-4|-3-3|-7-7|-5-5|-3-3|
A|-5-5|-4-4|-3-3|-2-2|-1-1|-7-7|-5-5|-3-3| X3
E|----|----|----|----|----|-5-5|-3-3|-1-1|[/tab]

[tab]e|----|----|----|----|----|
B|----|----|----|----|----|
G|-7-7|-6-6|-5-5|-4-4|-3--|

D|-7-7|-6-6|-5-5|-4-4|-3--|
A|-5-5|-4-4|-3-3|-2-2|-1--|
E|----|----|----|----|----|[/tab]

************************************

| ~ Vibrato

************************************