Guala

G-eazy

Album: Step Brothers - EP
Genero: Rap

Tablatura (Ver letra)

[Intro]

[tab]e|--------|---------|
B|--------|---------|
G|-5-8-7-5|-5p4-5p4-| X4
D|--------|---------|
A|--------|---------|
E|--------|---------|[/tab]

[Pre-Chorus]

[tab]e|--------|---------|--------|------|
B|--------|---------|--------|-6--6-|
G|-5-8-7-5|-5p4-5p4-|-5-8-7-5|-5--5-| X2
D|--------|---------|--------|------|
A|--------|---------|--------|------|
E|--------|---------|--------|------|[/tab]

[Chorus]

[tab]e|--------|---------|--------|------|
B|--------|---------|--------|-6--6-|
G|-5-8-7-5|-5p4-5p4-|-5-8-7-5|-5--5-| X2
D|--------|---------|--------|------|
A|--------|---------|--------|------|
E|--------|---------|--------|------|[/tab]

[Verse 1]

[tab]e|--------|---------|--------|------|
B|--------|---------|--------|-6--6-|
G|-5-8-7-5|-5p4-5p4-|-5-8-7-5|-5--5-| X4
D|--------|---------|--------|------|
A|--------|---------|--------|------|
E|--------|---------|--------|------|[/tab]

[Pre-Chorus]

[tab]e|--------|---------|--------|------|
B|--------|---------|--------|-6--6-|
G|-5-8-7-5|-5p4-5p4-|-5-8-7-5|-5--5-| X2
D|--------|---------|--------|------|
A|--------|---------|--------|------|
E|--------|---------|--------|------|[/tab]

[Chorus]

[tab]e|--------|---------|
B|--------|---------|
G|-5-8-7-5|-5p4-5p4-| X3(third time is pretty quiet)
D|--------|---------|
A|--------|---------|
E|--------|---------|[/tab]

[Verse 2]

[tab]e|--------|---------|--------|------|
B|--------|---------|--------|-6--6-|
G|-5-8-7-5|-5p4-5p4-|-5-8-7-5|-5--5-|
D|--------|---------|--------|------|
A|--------|---------|--------|------|
E|--------|---------|--------|------|[/tab]

[tab]e|--------|---------|--------|------|
B|--------|---------|--------|-6--x-|
G|-5-8-7-5|-5p4-5p4-|-5-8-7-5|-5--x-|
D|--------|---------|--------|------|
A|--------|---------|--------|------|
E|--------|---------|--------|------|[/tab]

[tab]e|--------|---------|--------|------|
B|--------|---------|--------|-6--6-|
G|-5-8-7-5|-5p4-5p4-|-5-8-7-5|-5--5-| X2
D|--------|---------|--------|------|
A|--------|---------|--------|------|
E|--------|---------|--------|------|[/tab]

[Pre-Chorus]

[tab]e|--------|---------|
B|--------|---------|
G|-5-8-7-5|-5p4-5p4-| X4
D|--------|---------|
A|--------|---------|
E|--------|---------|[/tab]

[Chorus]

[tab]e|--------|---------|--------|------|
B|--------|---------|--------|-6--6-|
G|-5-8-7-5|-5p4-5p4-|-5-8-7-5|-5--5-| X2
D|--------|---------|--------|------|
A|--------|---------|--------|------|
E|--------|---------|--------|------|[/tab]

[Verse 3]

[tab]e|--------|---------|
B|--------|---------|
G|-5-8-7-5|-5p4-5p4-| X4
D|--------|---------|
A|--------|---------|
E|--------|---------|[/tab]

[tab]e|--------|---------|--------|------|
B|--------|---------|--------|-6--6-|
G|-5-8-7-5|-5p4-5p4-|-5-8-7-5|-5--5-|
D|--------|---------|--------|------|
A|--------|---------|--------|------|
E|--------|---------|--------|------|[/tab]

[tab]e|--------|---------|--------|------|
B|--------|---------|--------|-6----|
G|-5-8-7-5|-5p4-5p4-|-5-8-7-5|-5----|
D|--------|---------|--------|------|
A|--------|---------|--------|------|
E|--------|---------|--------|------|[/tab]

[Pre-Chorus]

[tab]e|--------|---------|
B|--------|---------|
G|-5-8-7-5|-5p4-5p4-| X4
D|--------|---------|
A|--------|---------|
E|--------|---------|[/tab]

[Interlude]

[tab]e|--------|---------|
B|--------|---------|
G|--------|---------|
D|--------|---------|
A|--------|---------|
E|--------|---------|[/tab]

[Chorus]

[tab]e|--------|---------|--------|------|
B|--------|---------|--------|-6--6-|
G|-5-8-7-5|-5p4-5p4-|-5-8-7-5|-5--5-| X2
D|--------|---------|--------|------|
A|--------|---------|--------|------|
E|--------|---------|--------|------|[/tab]

[Outro]

[tab]e|--------|---------|
B|--------|---------|
G|-5-8-7-5|-5p4-5p4-| X4
D|--------|---------|
A|--------|---------|
E|--------|---------|[/tab]

[tab]e|--------|---------|--------|------|
B|--------|---------|--------|-6--6-|
G|-5-8-7-5|-5p4-5p4-|-5-8-7-5|-5--5-| X2
D|--------|---------|--------|------|
A|--------|---------|--------|------|
E|--------|---------|--------|------|[/tab]

************************************

| x Dead note
| p Pull-off

************************************