Buddha

G-eazy

Album: Step Brothers - EP
Genero: Rap

Tablatura (Ver letra)

[Chorus]

[tab]e|------------------|
B|------------------|
G|------------------|
D|------------------|
A|-7---------7-5-7-5| X6
E|---8-7-3-2--------|[/tab]

[tab]e|----------|
B|----------|
G|----------|
D|----------|
A|-7--------|
E|---8-7-3-2|[/tab]

[Verse 1]

[tab]e|------------------|
B|------------------|
G|------------------|
D|------------------|
A|-7---------7-5-7-5| X7
E|---8-7-3-2--------|[/tab]

[tab]e|----------|
B|----------|
G|----------|
D|----------|
A|-7--------|
E|---8-7-3-2|[/tab]

[Chorus]

[tab]e|------------------|
B|------------------|
G|------------------|
D|------------------|
A|-7---------7-5-7-5| X6
E|---8-7-3-2--------|[/tab]

[tab]e|----------|
B|----------|
G|----------|
D|----------|
A|-7--------|
E|---8-7-3-2|[/tab]

[Verse 2]

[tab]e|------------------|
B|------------------|
G|------------------|
D|------------------|
A|-7---------7-5-7-5| X7
E|---8-7-3-2--------|[/tab]

[Chorus]

[tab]e|------------------|
B|------------------|
G|------------------|
D|------------------|
A|-7---------7-5-7-5| X6
E|---8-7-3-2--------|[/tab]

[tab]e|----------|
B|----------|
G|----------|
D|----------|
A|-7--------|
E|---8-7-3-2|[/tab]

[Outro]

[tab]e|------------------|
B|------------------|
G|------------------|
D|------------------|
A|-7---------7-5-7-5| X8
E|---8-7-3-2--------|[/tab]