Suck My Ass

F.y.p

Genero:

Tablatura

Intro/Verse - Play with lots of distortion

*burp*... *burp*... *belch*...

[tab]E| |--------------------------------------------|
B| |--------------------------------------------|
G| |----7---------------------------------------| x4
D| |--7---7-----7-------9-------5---------------|
A| |5---------7---7---9---9---5---5-------------|
E| |--------5-------7-------3-------------------|[/tab]

Chorus

[tab]E| |--------------------------------------------|
B| |--------------------------------------------|
G| |7777----------------------------------------|
D| |7777-7777-9999-5555-------------------------| x4
A| |5555-7777-9999-5555-------------------------|
E| |-----5555-7777-3333-------------------------|[/tab]

Ending

[tab]E| |--------------------------------------------|
B| |--------------------------------------------|
G| |7777----------------7777-----------------7--|
D| |7777-7777-9999-5555-7777-7777-9999-5555--7--| Let ring
A| |5555-7777-9999-5555-5555-7777-9999-5555--5--|
E| |-----5555-7777-3333------5555-7777-3333-----|[/tab]