Die Young

F.y.p

Genero:

Tablatura

[tab]I love this song!!!
Verse
e----------------------------------|
B----------------------------------|
G----------------------------------|
D-----------------7-7-7-7--6-6-6-6-|
A-7-7-7-7-7-7-7-7-5-5-5-5--4-4-4-4-|
E-5-5-5-5-5-5-5-5------------------|[/tab]
[tab]P.M...............................
Chorus
e-----------------------------------|
B-----------------------------------|
G-----------------------------------|
D-----------------7-7-7-7-11-11-9-9-|
A-7-7-7-7-7-7-7-7-5-5-5-5-9--9--7-7-|
E-5-5-5-5-5-5-5-5-------------------|[/tab]
[tab]solo
e-----------------------------------------------|
B-----------------------------------------------|
G-------7-7-7-7--------7-s9-7-7-7-7-6-6-6-4-4-4-|
D-7-7-7---------7-7-7-7-------------------------|
A-----------------------------------------------|
E-----------------------------------------------|[/tab]