Cyanide In Your Koolaid

F.y.p

Genero:

Tablatura

-------------------------------------------------------------------------------
F.Y.P.
-------------------------------------------------------------------------------
Tabbed by: Danny
Email: cronos75@aol.com

Tuning: Standard

Since I've learned everything I know about guitar from reading other people's tabs on
net, I figured I give a little back to the community.

This is a simple little ditty, but it sounds cool nonetheless. A great tune for the
axe player. In terms of accuracy I believe it to be beyond reproach.

Bass intro:

[tab]G|-----------------------------------------------------------------------------|
D|-----0-----------------1--------0--------------------------------------------|
A|-1-----1------1----2-----2--1-----1---Repeat---------------------------------|
E|----------2-----2------------------------------------------------------------|[/tab]
[tab]Guitar kicks in:
(m = mute)
e|---------------------------------------------------------------------------|
B|---------------------------------------------------------------------------|
G|---------------------------------------------------------------------------|
D|--1---------1----1---------------------------------------------------------|
A|11-0---1--22-2-11-0---Repeat once------------------------------------------|
E|-----22-2------------------------------------------------------------------|mm mm mm mm[/tab]

[tab]e|-----------------------------------------------------------------------------|
B|-----------------------------------------------------------------------------|
G|3--33---------4-4-4-3-3-33---------------------------------------------------|[/tab]

[tab]D|3--33--4--44--4-4-4-3-3-33--|
A|1--11--4--44--2-2-2-1-1-11--|Repeat several times, then cap it all with:[/tab]

E|-------2--22--------------------------------------------------------------

[tab]e|--------------------------------------------------------------------------------|
B|--------------------------------------------------------------------------------|
G|-4-33---------------------------------------------------------------------------|
D|-4-33---------------------------------------------------------------------------|
A|-2-11---------------------------------------------------------------------------|
E|--------------------------------------------------------------------------------|[/tab]

[tab]e|---------------------------------|
B|---------------------------------|
G|3--------3---4-44-3--------3-----|
D|3-4-4-44-3-4-4-44-3-4-4-44-3--6--|
A|1-4-4-44-1-4-2-22-1-4-4-44-1--6--|
E|--2-2-22---2--------2-2-22----4--|[/tab]

(It think this next part is what they call a "verse")

[tab]e|--------------------------------------|
B|--------------------------------------|
G|3--------3---4-44-3--------3333-------|
D|3-4-4-44-3-4-4-44-3-4-4-44-3333-6666--|
A|1-4-4-44-1-4-2-22-1-4-4-44-1111-6666--|
E|--2-2-22---2--------2-2-22------4444--|[/tab]

Ok, I'm getting bored. From here on out I'm gonna omit the number of strums for each
It's stupidly easy to figure out, anyways.

[tab]e|---------------------------------------------------|
B|---------------------------------------------------|
G|------4---------------------------------3----------|
D|3--4--4--6------------------------------3-4-4-4-4--|
A|3--4--2--6---Repeat, then cap it with:--1-4-4-4-4--|
E|1--2-----4--------------------------------2-2-2-2--|[/tab]

Hit the verse riff a few more times then:

[tab]e|----------------------------------------|
B|----------------------------------------|
G|3-3------4-4---------3---4--------------|
D|3-3-4-4--4-4-6-6-----3-4-4-6-4-4-4-6-4--|
A|1-1-4-4--2-2-6-6-----1-4-2-6-4-6-4-6-4--|
E|----2-2------4-4-------2---4-2-4-2-4-2--|[/tab]

Well, the chords progressions are all there. I'll leave the strumming/timing up to you.