Arcos

Fabiana Cantilo

Genero: Pop Rock

Tablatura

INTRO: A        G/A

e|-------------------------------------|
B|-------------------------------------|
G|--------2--4-------------------------| X2
D|----2-4-------5--4-5--4/2-0----------|
A|-0--------------------------0--------|
E|-------------------------------------|

A G/A
Cambió su voz y cambió lo demás

A G/A
Cambió su cara en el último flash

D E
Lo juro él fue y no pude explicarlo

A
Oh porque

G/A
Fue tanto tiempo que pude aguardarlo

A G/A
Seguí soñando por casi 1000 días

A G/A
No estaba el ángel, no estaba mi guía

D E
Estoy pateando mi única salida

A
Fuera de aquí

G/A
Los viejos cuervos no tienen mi vida


D E A F#m
Son muchos arcos los que cruzan el mar

D E F#m F#m/E
Adonde todos guardan su rosa

D E A F#m
Algunos arcos nunca cruzan el mar

B7 E7 A
Ya no espero yo voy para allá

A G/A A
e|-------------------------------------|
B|-------------------------------------|
G|--------2--4-------------------------| X2
D|----2-4-------5--4-5--4/2-0----------|
A|-0--------------------------0--------|
E|-------------------------------------|



D E A F#m
Son muchos arcos los que cruzan el mar

D E F#m F#m/E
Adonde todos guardan su rosa

D E A F#m
Algunos arcos nunca cruzan el mar

B7 E7 A
Ya no espero yo voy para allá

********(Corregido por BANZAI)*********