Wer Nicht Schwimmen Kann Der Taucht

Faber

Genero: Pop

Tablatura

[Intro]

[tab]e|-------------------------------------------------------------------------------------------|
B|------0----------0h1----------0----------0----------0----------0h1----------0----------0---|
G|-------------------------------------------------------------------------------------------|
D|--------2------------2------2---2------2---2------2--2--------2---2------2---2------2---2--|
A|-------------------------------------------------------------------------------------------|
E|-0--------0----0----------0-------0-------------0-------0----0----------0-------0----------|[/tab]


Verse: (repeat twice)


(1. Verse)
Mein Dorf ist grau Mein Alltag und meine Alte auch Nur die
Haus Ich träume oft von Früher und wie schön es war Als man sich
(2. Verse)
Mein Dorf ist grau Assi-TV, jeden Tag die gleiche Show das baut mich
hund Ich fliege vogelfrei nach Lampedusa von daheim Wenn es mir
[tab]e|----------------------------------------------------------------------------------------------------------|
B|--------0-----------------0-----------------1-----------------0-----------------1-----------------1-------|
G|-----------0-----------------0-----------------0-----------------0-----------------0-----------------0----|
D|-----2--------2--------2--------2--------2--------2--------2--------2--------2--------2--------2--------2-|
A|--------------------------------------------------------------------------3-----------------3-------------|
E|--0-----------------0-----------------0-----------------0-------------------------------------------------|[/tab]

(1. Verse)
Bunte bringt hier Farbe ins
heimisch fühlen konnt' im eig'nen Land
(2. Verse)
auf im Plattenbau, mein Schäfer-
schlecht geht, seh' ich gern', dass es euch schlechter geht
[tab]e|--------3--------------------------|
B|-----------0--------------0--------|
G|--------------0--------------0-----|
D|-----0-----------------0--------0--|
A|-----------------------------------|
E|--3-----------------3--------------|[/tab]


[Interlude]

[tab] Ich bin bestimmt kein Rassist und gegen Ausländer habe ich
e|--------1-----------------1-----------------1-----------------1-----------------------------------------|
B|--------3--3--------------3--3-----------------3-----------------3--------------1-----------------------|
G|-----2--------2--------2--------2--------2--------2--------2--------2--------------2--------------------|
D|--0-----------------0-----------------0-----------------0--------------------3--------3--------3-----3--|
A|--------------------------------------------------------------------------------------------3-----------|
E|--------------------------------------------------------------------------1-----------------------1-----|[/tab]

nichts ,aber ich...

[tab]e|-----------------------|
B|--------0-----------0^-|
G|-----------1--------1^-|
D|-----2--------2-----2^-|
A|--2-----------------2^-|
E|-----------------------|[/tab]


[Chorus]


[tab] schaue euren Schlauchbooten beim Kentern zu Im Liege-
e|--------------------------------------------1-----------------1--------|
B|--------1-----------------0--------------------3-----------------3-----|
G|-----------2-----------------0-----------2--------2--------2--------2--|
D|-----2--------2--------0--------0-----0-----------------0--------------|
A|--0--------------------------------------------------------------------|
E|--------------------3--------------------------------------------------|[/tab]

[tab] stuhl am Swimmingpool am Mittelmeer Kratz' mich am
e|--------------------------------------------1-----------------1--------|
B|--------1-----------------0--------------------3-----------------3-----|
G|-----------2-----------------0-----------2--------2--------2--------2--|
D|-----2--------2--------0--------0-----0-----------------0--------------|
A|--0--------------------------------------------------------------------|
E|--------------------3--------------------------------------------------|[/tab]

[tab] Bart, kratz' mich am Bauch, wer nicht schwimmen kann, der
e|--------------------------------------------1---------|
B|--------1-----------------0--------------------3------|
G|-----------2-----------------0-----------2--------2---|
D|-----2--------2--------0--------0-----0---------------|
A|--0---------------------------------------------------|
E|--------------------3---------------------------------|[/tab]

[tab](after the 1. Verse)
taucht Wer nicht schwimmen kann, der
e|-------------------------------------------------------------|
B|--------0--------------0p1--------------0--------------0-----|
G|-------------------------------------------------------------|
D|-----1-----1----------------1--------1-----1--------1-----1--|
A|-------------------------------------------------------------|
E|--0-----------0-----0-------------0-----------0--------------|[/tab]

[tab] taucht Wer nicht schwimmen kann, der
e|-----------------------------------------------------------------------|
B|--------1-----------------1-----------------1-----------------1--------|
G|-----------2-----------------2-----------------2-----------------2-----|
D|-----3--------3--------3--------3--------3--------3--------3--------3--|
A|-----------------------------------------------------------------------|
E|--1-----------------1-----------------1-----------------1--------------|[/tab]

[tab] taucht
e|-------------------------------------------------------------|
B|--------0--------------0p1--------------0--------------0-----|
G|-------------------------------------------------------------|
D|-----1-----1----------------1--------1-----1--------1-----1--|
A|-------------------------------------------------------------|
E|--0-----------0-----0-------------0-----------0--------------|[/tab]

[tab](after the 2. Verse)
taucht Wer nicht schwimmen kann, der
e|-----------------------------------------------------------------------|
B|--------1-----------------1-----------------1-----------------1--------|
G|-----------2-----------------2-----------------2-----------------2-----|
D|-----3--------3--------3--------3--------3--------3--------3--------3--|
A|-----------------------------------------------------------------------|
E|--1-----------------1-----------------1-----------------1--------------|[/tab]

[tab] taucht Wer nicht schwimmen kann, der
e|-----------------------------------------------------------------------|
B|--------0-----------------0-----------------1-----------------0--------|
G|-----------0-----------------0-----------------0-----------------0-----|
D|-----2--------2--------2--------2--------2--------2--------2--------2--|
A|-----------------------------------------------------------------------|
E|--0-----------------0-----------------0-----------------0--------------|[/tab]

[tab] taucht Und ich meine doch nicht
e|-----------------------------------------------------------------------|
B|--------1-----------------1-----------------1-----------------1--------|
G|-----------2-----------------2-----------------2-----------------2-----|
D|-----3--------3--------3--------3--------3--------3--------3--------3--|
A|-----------------------------------------------------------------------|
E|--1-----------------1-----------------1-----------------1--------------|[/tab]


[Bridge]

[tab] dich Dich kenne ich lange schon, ich meine all die Ander'n, die
e|--------1-----------------1-----------------1-----------------1-----------------------------------------|
B|--------3--3--------------3--3-----------------3-----------------3--------------2-----------------------|
G|-----2--------2--------2--------2--------2--------2--------2--------2--------------3--------------------|
D|--0-----------------0-----------------0-----------------0--------------------3--------3--------3-----3--|
A|--------------------------------------------------------------------------------------------3-----------|
E|--------------------------------------------------------------------------1-----------------------1-----|[/tab]

[tab] uns täglich bestehl'n Und in den Parks deal'n Früher
e|--------------------------------------------------------------------------------3-----------3^--3^--|
B|--------0-----------------0-----------------1-----------------1--------------------0--------0^--0^--|
G|-----------1-----------------1-----------------2-----------------2--------------------0-----0^--0^--|
D|-----2--------2--------2--------2--------3--------3--------3--------3--------0--------------0^--0^--|
A|--2-----------------2-----------------------------------------------------------------------2^--2^--|
E|--------------------------------------1-----------------1-----------------3-----------------3^--3^--|[/tab]

[tab] so 'was nie passiert Weil's ja sonst hier niemand
e|----------------------------------------------------------------------------------------------------------|
B|--------1-----------------1-----------------0-----------------0-----------------1-----------------1-------|
G|-----------0-----------------0-----------------1-----------------1-----------------2-----------------2----|
D|-----2--------2--------2--------2--------2--------2--------2--------2--------3--------3--------3--------3-|
A|--3-----------------3-----------------2-----------------2-------------------------------------------------|
E|--------------------------------------------------------------------------1-----------------1-------------|[/tab]

[tab] macht nehm' ich das selber in die Hand Mit
e|--------3-----------------3-------------------------------------------------------------------------------|
B|-----------0-----------------0--------------1-----------------1-----------------0-----------------1-------|
G|--------------0-----------------0--------------0-----------------0--------------1--1--------------0--1----|
D|-----0-----------------0-----------------2--------2--------2--------2--------2--------2--------2--------2-|
A|--------------------------------------3-----------------3-----------------2-----------------2-------------|
E|--3-----------------3-------------------------------------------------------------------------------------|[/tab]

[tab] Fahnen und Gesang für unser Vater-
e|--------------------------------------------3-----------3^-----0^--------------------------------|
B|--------1-----------------1--------------------0--------0^-----1^-----1-----------------1--------|
G|-----------2-----------------2--------------------0-----0^-----0^--------0-----------------0-----|
D|-----3--------3--------3--------3--------0--------------0^-----2^--2--------2--------2--------2--|
A|--------------------------------------------------------2^-----3^-----------------3--------------|
E|--1-----------------1-----------------3-----------------3^-----0^--------------------------------|[/tab]

[tab] land Ich schaue euren
e|------------------------------------------------------------|
B|--------0-----------0^-----------------------------1--------|
G|-----------1--------1^--------------------------------2-----|
D|-----2--------2-----2^--------------------------2--------2--|
A|--2-----------------2^-----------------------0--------------|
E|------------------------------------------------------------|[/tab]

(last Chorus without Instruments)

Schlauchbooten beim Kentern zu
Im Liegestuhl, am Simmingpool, am Mittelmeer
Kratz' mich am Bart, kratz' mich am Bauch
Wer nich schwimmen kann, der taucht



************************************

| h Hammer-on
| p Pull-off
| ^
Strum down

************************************