Ivana

Faber

Genero: Rap

Tablatura

[tab][Intro & Verse Tabs]
Em G F#dim B
e|---------------|---------------|---------------|-----------------|
B|------0--------|------0--------|------1--------|------0----------|
G|------------0--|------------0--|------------0--|------------2----|
D|---------------|---------------|---------------|-----------------|
A|---------------|---------------|---------------|2----------------|
E|0--------------|3--------------|2--------------|-----------------|[/tab]

[tab][Little Chorus Melody Tabs]
Em G F#dim B
e|---------------|---------------|---------------|-----------------|
B|------0--------|------0--------|------------1--|0----------------|
G|------------0--|0-----------0--|------2--------|------------0----|
D|2--------------|---------------|4--------------|------4----------|
A|---------------|---------------|---------------|-----------------|
E|---------------|---------------|---------------|-----------------|[/tab]


[Verse 1]
[tab]Em G F#dim B
Sag mir, wie du heißt und ich sag dir, was du trinkst[/tab]
[tab]Em G F#dim B
Du sagst ein Glas Weißwein und Junge lass den Scheiß sein[/tab]
[tab] Em G F#dim B
Ich bin ne Lady Baby-face, ich will allein sein, nur dass du[/tab]
[tab]Em G F#dim B
Bescheid weißt. Seit ich dich sah, weiß ich was[/tab]
[tab]Em G F#dim B
heiß heißt. Da hast du[/tab]
[tab]Em G F#dim B
gelacht. Von deinem Charme wird noch mein Glas warm. Justin[/tab]
[tab]Em G F#dim B
Bieber, mach mir lieber, mach mir lieber, mach mir lieber etwas[/tab]
[tab]Em G F#dim B
Eis rein[/tab]

[Chorus 1]
[tab]Am
Iiiiivan-[/tab]
[tab]Em G F#dim B
-aaa[/tab]
Em G F#dim B


[Verse 2]
[tab]N.C. Em G F#dim B
Das Leben ist kein Backstage Man kriegt hier nichts um-[/tab]
[tab]Em G F#dim B
-sonst Babe Du bist keine[/tab]
[tab]Em G F#dim B
Prepaid, du bist ein Abonnement Ach, ich find dich[/tab]
[tab]Em G F#dim B
wunderbar, doch du willst einen Anderen, seitdem bin ich ein[/tab]
[tab]Em G F#dim B
Anderer[/tab]

[Chorus 2]
[tab]Am
Iiiiivan-[/tab]
[tab]Em G F#dim B
-aaa[/tab]
Em G F#dim B

[tab]Am
Iiiiivan-[/tab]
[tab]Em G F#dim B
-aaa[/tab]
Em G F#dim B
Em G F#dim B
Em G F#dim B

[tab][Bridge]
Dm Dm Am Am
e|---1-----1--|---3-----5-------5--|---0-----0--|---------0--|
B|---3-----3--|---3-----3-------6--|---1-----1--|---4-----1--|
G|---2-----2--|---2-----2-oder--7--|---2-----2--|---2-----2--|
D|0-----0-----|0-----0-------------|------------|---2--------|
A|------------|---------------5----|0-----0-----|0-----0-----|
E|------------|--------------------|------------|------------|[/tab]

[tab] Dm Dm Am G
e|---1-----1--|---3-----5-------5--|---0-----0--|------------|
B|---3-----3--|---3-----3-------6--|---1-----1--|---3-----3--|
G|---2-----2--|---2-----2-oder--7--|---2-----2--|---0-----0--|
D|0-----0-----|0-----0-------------|------------|---0-----0--|
A|------------|---------------5----|0-----0-----|------------|
E|------------|--------------------|------------|3-----3-----|[/tab]

[tab] Dm Dm Am Am
e|---1-----1--|---3-----5-------5--|---0-----0--|---------0--|
B|---3-----3--|---3-----3-------6--|---1-----1--|---4-----1--|
G|---2-----2--|---2-----2-oder--7--|---2-----2--|---2-----2--|
D|0-----0-----|0-----0-------------|------------|---2--------|
A|------------|---------------5----|0-----0-----|0-----0-----|
E|------------|--------------------|------------|------------|
Und Sex in der Küche Und Sekt im Bett Ja du[/tab]
[tab] Dm Dm Am G
e|---1-----1--|---3-----5-------5----------|---0-----0--|---3-----3--|
B|---3-----3--|---3-----3-------6----------|---1-----1--|---3-----3--|
G|---2-----2--|---2-----2-oder--7----------|---2-----2--|---0-----0--|
D|0-----0-----|0-----0---------------------|------------|------------|
A|------------|---------------5------------|0-----0-----|------------|
E|------------|----------------------------|------------|3-----3-----|
Musst mich nicht halten ich geh nicht mehr weg Ich hab 'n[/tab]
[tab] Dm Dm C B
e|------5---------------5------|------7-----------8---------|-----8----------8-----|--------7---------11--|
B|------6---------------6------|------6-----------6---------|-----8----------8-----|--------7---------7---|
G|------7---------------7------|------7-----------7---------|-----9----------9-----|--------8---------8---|
D|-----------------------------|----------------------------|----------------------|----------------------|
A|5-------------5--------------|5-------------5-------------|----------------------|----------------------|
E|-----------------------------|----------------------------|8-----------8---------|7-------------7-------|
Konto in der Schweiz, wenn du weißt was ich mein, Ich bin reich so reich, dass es für uns beide reicht[/tab]

[Chorus 3]
[tab]Am
Iiiiivan-[/tab]
[tab]Em G F#dim B
-aaa[/tab]
Em G F#dim B

[tab]Am
Iiiiivan-[/tab]
[tab]Em G F#dim B
-aaa[/tab]
Em G F#dim B
Em G F#dim B
Em G F#dim B

[Outro]
[tab]Em G F#dim B
Sag mir wie ich heiß und sag mir wer ich bin Sag[/tab]
[tab]Em G F#dim B
mir was ich fühl, ja sag was ich trink[/tab]
[tab]C C C C
Gib mir einen neuen Namen wie[/tab]
[tab]B B Em
du mich willst, kannst du mich haben[/tab]