Time 2 Shine

E.town Concrete

Album: Time 2 Shine
Genero: Pop

Tablatura (Ver letra)

tabber:ddranthony92
band:e-town concrete
album:time2shine
song:time 2 shine
tuning:drop D i think
e-mail:slipknotskid1992@yahoo.com

palm mute: .

intro:

[tab]|---------------------|
|---------------------|
|---------------------|
|--------7/8888888/7--|
|0000000-5/6666666/5--|
|0000000--------------|
....... [/tab]



other intro:

[tab]during the second time of the into after the palm mutes
|---------------------|
|---------------------|
|--------7/8888888/7--|
|--------7/8888888/7--|
|0000000--------------|
|0000000--------------|
.......[/tab]


then after a while the intro it starts to slow down:

[tab]|----------------------------|
|----------------------------|
|----------------------------|
|--------7------7/8888888/7--|
|--------5------5/6666666/5--|
|--0000-----00---------------|[/tab]



next part:


[tab]|--------------------|
|--------------------|
|--------------------|
|--8/6/77------------|
|--6/4/55------------|
|----------0000-000--|
.... ...[/tab]


[tab]|---------------------------------------|
|---------------------------------------|
|-----------5b------------4b------------|
|-----------5b------------4b--4-5-------|
|-----------------------------2-3--5/4--|
|--0-2-3-0-----0-2-3-0-------------3/2--|
. . . . . . . .[/tab]


[tab]Listen to see how long to hold each note
|------------------|
|------------------|
|------------------|
|--4/3-3/4/5-------|
|--2/1-1/2/3--5/4--|
|-------------3/2--|[/tab]


then back to:

[tab]|--------------------|
|--------------------|
|--------------------|
|--8/6/77------------|
|--6/4/55------------|
|----------0000-000--|
.... ...[/tab]


then to:

[tab]|--------------------------------------|
|--------------------------------------|
|-----------5b-----------4b------------|
|-----------5b-----------4b--4-5-------|
|----------------------------2-3--5/4--|
|--0-2-3-0-----0-2-3-0------------3/2--|
. . . . . . . .[/tab]


[tab]|--------------|
|--------------|
|--------------|
|-------44-33--|
|-4-33--22-11--|
|-2-11---------|[/tab]


then for the last time:

[tab]|--------------------|
|--------------------|
|--------------------|
|--8/6/77------------|
|--6/4/55------------|
|----------0000-000--|
.... ...[/tab]




andif u have a myspace please add the ETC page i made at www.myspace.com/etcrapcore

Thanks