Do You Know What Its Like

E.town Concrete

Genero: Pop

Tablatura

This is the first song I've tried to figure out by ear. So far
all i've got is the intro/verse. I'm hoping someone else will figure
out the rest :)

[tab] let ring ----------------------------------- |
^
e|------------|------------|------------|---------------|
B|------------|------------|------------|---------------|
G|------------|--5---------|--5----5-5--|---------------|
D|------------|--7---------|--7----5-5--|-5-h7\5--------|
A|------------|--7---------|--7------7--|--------55/----|
E|-5----------|------------|------------|--------33/----|[/tab]


Slide back up to A

let ring -----------------------------------------|
[tab] ^
e|------------|------------|------------|------------|
B|------------|------------|------------|------------|
G|------------|--5---------|--5----5-5--|------------|
D|------------|--7---------|--7----5-5--|-5-h7/9~~~~-|
A|------------|--7---------|--7------7--|------------|
E|-5----------|------------|------------|------------|[/tab]