4 The Fame

E.town Concrete

Genero:

Tablatura

4 THA FAME - E-Town Concrete 


By:John S. (JuddDragg@aol.com)

[tab]INTRO/VERSE:
e|---------------------------------------------------------------------------|
B|---------------------------------------------------------------------------|
G|---------------------------------------------------------------------------|
D|--5---5---4---4---5---5---4---4-7-4---5---5---4---4---5---5---4---4-5-7-5-4|
A|7---7---5---5---7---7---5---5-------7---7---5---5---7---7---5---5----------|
E|---------------------------------------------------------------------------| [/tab]

[tab]CHORUS:
e|---------------------------------------------------------------------------|
B|---------------------------------------------------------------------------|
G|-9-XX-7------XX-9-X-12-X-7-------------------------------------------------|
D|-9-XX-7------XX-9-X-12-X-7-------------------------------------------------|
A|-7-XX-5------XX-7-X-10-X-5-------------------------------------------------|
E|---------------------------------------------------------------------------| [/tab]

[tab]BREAKDOWN I & II
e|--------------|------------------------------------------------------------|
B|--------------|------------------------------------------------------------|
G|--------------|--------------10------------------10------------------------|
D|--X-X---------|-2-3-2-3--8-9----9---2-3-2-3--8-9---------------------------|
A|--X-X-5/6-----|-2-3-2-3-------------2-3-2-3--------------------------------|
E|--0-0---------|-0-1-0-1-------------0-1-0-1--------------------------------| [/tab]

[tab]CHORUS II
e|---------------------------------------------------------------------------|
B|---------------------------------------------------------------------------|
G|--9-8-----------------10---------------------------------------------------|
D|--9-8-7--2-3-2-3--8-9----9-------------------------------------------------|
A|--7-6-7--2-3-2-3-----------------------------------------------------------|
E|------5--0-1-0-1-----------------------------------------------------------|[/tab]