Unstoppable

E.s. Posthumas

Genero: Pop

Tablatura

Hello, this Tab is perfect for you, if you just want to play along with "Unstoppable". 
I only tabbed the Lead- Parts. Tuning is "Drop C", because it sounds a little bit heavier.
Some "Hall" and "Distortion" fits this song pretty good. Have fun!


b Bend
r Release
\ Slide down
P.M. Palm Mute
~ Vibrato
(x2) Two times

[tab][Intro]
(0:00- 0:40)
D||--------|--------|--------|---------|---------| D||--------|--------|--------|--------|--------|
A||12~~~~~~|10~~~~~~|8~~~~~~~|-7~~~~~~~|---------| A||10~~~~~~|8~~~~~~~|5~~~~~~~|4~~~~~~~|~~~~~~4~|
F||--------|--------|--------|---------|---------| F||--------|--------|--------|--------|--------|
C||--------|--------|--------|---------|---------| C||--------|--------|--------|--------|--------|
G||--------|--------|--------|---------|---------| G||--------|--------|--------|--------|--------|
C||--------|--------|--------|---------|---------| C||--------|--------|--------|--------|--------| [/tab]


D||--------|--------|--------|--------|--------|
[tab]A||4~5~~~~~|10~~~~~~|8~~~~~~~|7~~~~~~~|~~~~~~~~|
F||--------|--------|--------|--------|--------|
C||--------|--------|--------|--------|--------|
G||--------|--------|--------|--------|--------|
C||--------|--------|--------|--------|--------| [/tab]

[Part 1]
(0:40- 1:18)

P.M----------------------------------------------------------------|

[tab]D||----------------|----------------|----------------|-----------------|
A||----------------|----------------|----------------|-----------------|
F||--------------2-|--------------5-|--------------2-|-----------------|
C||--2-4-2-5-2-4---|--2-4-2-5-2-4---|--2-4-2-5-2-4---|-5-2-4-1-2---1---|
G||----------------|----------------|----------------|-----------3---2-|
C||----------------|----------------|----------------|-----------------|[/tab]

[tab]D||----------------|----------------|----------------|-----------------|
A||----------------|----------------|----------------|-----------------|
F||--------------2-|--------------5-|--------------2-|-----------------|
C||--2-4-2-5-2-4---|--2-4-2-5-2-4---|--2-4-2-5-2-4---|-5-2-4-1-2---1---| (2x)
G||----------------|----------------|----------------|-----------3---2-|
C||----------------|----------------|----------------|-----------------|[/tab]


[tab]D||--------|--------|--------|11~~~~~~|
A||5~~~~~~~|8~~~~~~~|12~~~~~~|--------|
F||--------|--------|--------|--------|
C||--------|--------|--------|--------|
G||--------|--------|--------|--------|
C||--------|--------|--------|--------|[/tab]

[tab][Part 2]
(1:18- 1:38)
This one is 3/4 measure.
D||------------|------------|------------|-------------|
A||--7---------|--7---------|--7---------|-----5---6---|
F||----7----5--|----7----5--|----7----5--|-4-----------|
C||------------|------------|------------|-------------|
G||------------|------------|------------|-------------|
C||------------|------------|------------|-------------|[/tab]


[tab]D||------------|------------|------------|-------------|
A||--19--------|--19--------|--19--------|-----17--18--|
F||-----19--17-|-----19--17-|-----19--17-|--16---------|
C||------------|------------|------------|-------------|
G||------------|------------|------------|-------------|
C||------------|------------|------------|-------------|[/tab]

This guitar plays a little riff, while the part above continuous:

P.M.-----|

[tab]D||------------|------------|------------|-------------|
A||------------|------------|------------|-------------|
F||------------|------------|------------|-------------|
C||------------|------------|------------|-------------|
G||---------7\-|---------7\-|---------7\-|-------------|
C||-2----------|-2----------|-2----------|-2-2-2-2-2---|[/tab]

[tab][Part 3]
(1:38-1:55):
D||----------------|----------5-----|--------8-7-5-7-|-----------------|
A||----------------|-5----7-8---7---|-4----7---------|-7----7-8-5-7----|
F||----------2-----|----------------|----------------|--------------8--|
C||-2----4-5---4---|----------------|----------------|-----------------|
G||----------------|----------------|----------------|-----------------|
C||----------------|----------------|----------------|-----------------|[/tab]

[tab]D||-----------5----|--8----5----7---|11--12-14-12--11|-----11------14--|
A||-------7-8----5-|----------------|----------------|-13--------------|
F||-6-8------------|----------------|----------------|---------11------|
C||----------------|----------------|----------------|-----------------|
G||----------------|----------------|----------------|-----------------|
C||----------------|----------------|----------------|-----------------|[/tab]

Actually you just hold the 5fth fret in this part,
but if you want to make it a little spicier, play this:

Hold--------------|

[tab]D||----------------|----------------|----------------|-----------------|
A||-5-----------5--|-5-----------7--|-7b8---------8--|-8r--------------|
F||----------------|----------------|----------------|-----------------|
C||----------------|----------------|----------------|-----------------|
G||----------------|----------------|----------------|-----------------|
C||----------------|----------------|----------------|-----------------|[/tab]

[tab]D||----------------|-7---5----------|
A||----------------|---------8---7--|
F||-4---2----------|----------------|
C||---------5---4--|----------------|
G||----------------|----------------|
C||----------------|----------------|[/tab]

[Part 4]
(2:07-2:19)

[tab]D||-12-11-12----11----------|-14-12-14-11-12----11----|-15-14-15-12-14-11-12----|-----------------------|
A||----------13----12-13-12-|----------------13----12-|----------------------13-|-10----8-10-8----7-----|
F||-------------------------|-------------------------|-------------------------|-----------------------|
C||-------------------------|-------------------------|-------------------------|-----------------------| (x2)
G||-------------------------|-------------------------|-------------------------|-----------------------|
C||-------------------------|-------------------------|-------------------------|-----------------------|[/tab]

[Part 5]
(2:19-2:42)

[tab]D||----------------|----------------|-5--------------|----------------|
A||-7----------5-7-|-8--------------|------------8-7-|-5--------------|
F||----------------|-------------4--|----------------|-------------4--|
C||----------------|----------------|----------------|----------------|
G||----------------|----------------|----------------|----------------|
C||----------------|----------------|----------------|----------------|[/tab]

[tab]D||----------------|----------------|-5------------5-|-7--------------|
A||-7----------5-7-|-8--------------|------------8---|----------------|
F||----------------|-------------4--|----------------|----------------|
C||----------------|----------------|----------------|----------------|
G||----------------|----------------|----------------|----------------|
C||----------------|----------------|----------------|----------------|[/tab]

The following notes are triplets:

[tab]D||-7-7-7-8-8-8-|-10-10-10-12-12-12-|-14-14-14-14-14-14-|
A||-------------|-------------------|-------------------|
F||-------------|-------------------|-------------------|
C||-------------|-------------------|-------------------|
G||-------------|-------------------|-------------------|
C||-------------|-------------------|-------------------|[/tab]

Just bend the 12th fret on the B- String with every stroke a little more and gradually release it.

[tab]D||-12----12----|-12----12----12----|-12----12----12----12----12----12-|
A||-12----12b13-|-12b13-12b13-12b14-|-12b14-12b14-12b14-12b13-12b13-12-|
F||-------------|-------------------|----------------------------------|
C||-------------|-------------------|----------------------------------|
G||-------------|-------------------|----------------------------------|
C||-------------|-------------------|----------------------------------|[/tab]