Lo Que Quiero

El Vislumbre Del Esteko

Genero:

Tablatura

D|------------------------------------------------------------------
A|----7--5--3-2-3-----7--5--3-2-3-----7--5--3-2-3-----7--5--3-2-3---
E|--5---------------5---------------5---------------5---------------

D|----7--5--3-2-3-----7--5--3-2-3----7--5--3-2-3-----7--5--3-2-3----
A|--5---------------5--------------5---------------5----------------
E|------------------------------------------------------------------

D|-------2---------2---------2-----------2----------------
A|--0--3------0--3------0--3--------0--3------------------
E|--------------------------------------------------------

D|----7--5--3-2-3----7--5--3-2-3----7--5--3-2-3-----7--5--3-2-3----
A|--5--------------5--------------5---------------5----------------
E|-----------------------------------------------------------------

D|-------2-----------2---------------------------------
A|--0--3-------0--3--------------2---------2-----------
E|--------------------------0--3-----0--3-------5------

Am G
Baila conmigo no tengas miedo
F E
voy a abrazarme de tu cintura amor
Am G
solo es preciso que sepas lo que quiero
F E
que son profundas las raíces de este amor
Dm E Dm E
esta noche cuando estes de fiesta
Dm E Dm E
y yo entone en mi guitarra esta canción
Dm E Dm E
voy a elevarte como una flor al viento
Dm E Dm F E
rio crecido derribar tu paredón
Am E7 Am E7 Am E7 Am
cantando, cantando, cantando

siente mi cuerpo no tiene fiebre
es que estas muy cerca me acelera y da calor
no es algo extraño ahí va de nuevo
ya vuela libre la paloma del amor
y la verdad no puedo resistirme
sabes me encanta cuando bailas para mi
hace pedazos y mata mis tristezas
tu risa alegre es la victoria de este amor
bailando, bailando, bailando

una vidala se escapa a tu sueño
y se desborda en la garganta del cantor
golpea su caja de magia plena
y se acompaña con simpleza y corazón
ese latido es un sentir constante
que agranda en ecos la firmeza de tu voz
y hasta tu entraña sin que te des cuenta
ya te atraviesa la memoria de los pueblos
cantando, cantando, cantando

tengo una idea quiero que vuelvas
aquí en Santiago la vida es mucho mejor
no hay tanta prisa por llegar a un destino
tomate un tiempo para disfrutar del sol
cuando tu cielo se estrelle en los veranos
sientas la brisa tibia jugando con tu pelo
los pies descalzo mezclados con la tierra
vibrando juntos de este ritmo santiagueño
bailando, bailando, bailando