El Salto

El Vagón

Genero: Rap

Tablatura

Intro
E------------------------------------------------------------------
B------------------------------------------------------------------
G---9-----9-----9----9----9--7----------------9-7------6---9----7--
D--9-----9-----9----9----9----9--7-------7h9--9-7------7----9----7-
A-7----12----11----9----7---------9--7h9----------9h7--7--7--7-5--5
E------------------------------------------------------5-----------

-------------|
-------------|
-9----9------|
-9--7---9----|
-7--------7--|
-------------|

Distorcion
-------------------------------------------------------------------
-------------7h9-7------------------7h9-7---7h9-7------------------
-9--9--------7h9-7------------------7h9-7---7h9-7-9-7-9h11---9-/2--
-9--9------7-------9h7--------------------9-------9-7-9h11--9-9/2--
-7-----7h9-------------9-------------------------------------------
-------------------------12h7-7-7-7--------------------------------

E D
vamos... ven aqui
A E
recuestate en mi pecho
E D
vamos a jugar a que todo
A E
no va a terminar

C#m B
no preguntes nada
A E
dame tu dulzura
C#m B
y tal vez la tristeza
A E
se vaya de mi

E D
heridas que marcan la piel
A E
que el tiempo endurece
E D
ya no soy un chico y no es facil
A E
dejarme llevar

C#m B
no preguntes nada
A E
tan solo es un sueño
C#m B
y no dejes que nadie
A E
me lo pueda robar

D A E
quiero viajar mirando tus ojos
D A E
llevame lejos, lejos de aca
D A E
donde nadie rompa mi castillo en el aire
D A E
porque si despierto volvere a caer

solo guitarra sobre
E D A E x

E D
la luna me ha visto rodar
A E
ella lo sabe
E D
mi pasado es negro
A E
ya no puedo mentir

E D A E
nunca tuve miedo y ahora, ahora estoy temblando
E D A E
te habia olvidado de todo, de todo


D A E
quiero viajar mirando tus ojos
D A E
llevame lejos, lejos de aca
D A E
donde nadie rompa mi castillo en el aire
D A E
porque si despierto volvere a caer.


E--------------------------------------------------------
B--------------------------------------------------------
G----9----9---9---9---9-7--7h9-7---7h9-7---9---6---9---9-
D---9----9---9---9---7--7--7h9-7-7-7h9-7--9-9/7-7/9-9--9-
A-12---11---9---7---5------------7---------------------7-
E--------------------------------------------------------