Vuelta Al Infierno

El Ultimo Ke Zierre

Album: Ay, de mí!
Genero: Pop

Tablatura (Ver letra)

D                E
Anoche tu y yo jugamos
F#
a ese juego en el que tú,
D
siempre sales vencedora.
E
Me enseñaste mil sonrisas
F#
bajo un techo de estrellas,
D
el de tu habitación.
E
Las canciones de Bob Dylan,
F#
las de Lole y Manuel,
me hacen hasta daño
D E
y con ellas me torturo,
F#
hasta que el alma, me dice:
A F#
¡Basta ya! Mejor hazte sangre,
A F#
¡Basta ya! Mejor pasar hambre.
E F#
Todo pruebo con tal de alargar mis noches
E F#
y por más que quiera, siempre llega el alba
D E F#
y amanece que no es poco, vuelta al infierno.

PRIMER SOLO (CON BASE DE D E F#):

e:--/10-9------------/10-9-------------------
B:--------12-10-9--10------12-10-9--5/7------
G:-------------------------------------------
D:-------------------------------------------
A:-------------------------------------------
E:-------------------------------------------

e:---------------------------------------------------------------
B:--10-9--------9--10-9-------------10-9--------9--10-9----------
G:-------11-9-11--------11-9-11----------11-9-11--------11-9-11--
D:---------------------------------------------------------------
A:---------------------------------------------------------------
E:---------------------------------------------------------------

e:--10-9------------------------------
B:-------12-10-12-10-9-10-12-10-------
G:------------------------------9/11--
D:------------------------------------
A:------------------------------------
E:------------------------------------

D E
Hoy ya ves, estoy llorando
F#
en el mismo rincón,
D
donde vengo a vomitar
E F#
cada noche que mi cuerpo, me dice: ¡Basta ya!
A F#
¡Basta ya! Y mejor te escondes,
A F#
¡Basta ya! Tú ya sabes donde.
E F#
Ve corriendo a donde el alba no te queme,
E F#
ve soñando y olvida que mientras tanto,
D E F#
amanece que no es poco, vuelta al infierno.

SEGUNDO SOLO (CON LA MISMA BASE KE EL PRIMERO):

e:--------------------------------------------------------------
B:--------------------------------------------------------------
G:--------------------------------------------------------------
D:----------------------------11/12-11-9----9-------------------
A:--------9-11-12-11-9----9--------------12----11/12-11-9----9--
E:--10-12--------------12---------------------------------12----

e:-------------------------------------------------------------------
B:-------------------------------------------------------------------
G:------------------------------------------------/11----/11----/14--
D:----------9-11-12--12/11-12----------------------------------------
A:--9-11-12-------------------11/12-11-9----9------------------------
E:---------------------------------------12--------------------------

F# F# F# (MACHAKANDO)

A F#
¡Basta ya! No tienes remedio,
A F#
¡Basta ya! Y echa un ojo al cielo.
D E F#
Amanece que no es poco, vuelta al infierno.
D E F#
Amanece que no es poco, seguir fingiendo.
D E F#
Amanece que no es poco, vuelta al infierno.

FINAL: F# F# F# A