Veneno

El Ultimo Ke Zierre

Album: Veneno
Genero: Pop

Tablatura (Ver letra)

Bueno dame VENENO, que a estas alturas es casi lo unico que interesa...
(Aunke es la version en vivo, se puede sacar de igual manera la del
disco VENENO...)

intro:

Bm G
e-------------------------------------|
B----------3--------------------------|
G--------4----4------------4----------|
D------4-----------------5----5-------| Arpegio base del tema...
A----2----------2-0----5----------0---|
E--------------------3----------3-----|

Punteo del intro:
e------9-7-----------9-7--15-------|
B----x-------10-8------------------|
G--x-------------------------------|
Dx---------------------------------|
A----------------------------------|
E----------------------------------|

e---12----9p7---7----------------|
B------------10-----10b----------|
G--------------------------------|
D--------------------------------|
A--------------------------------|
E--------------------------------|

Bm G
no me perguntes qué hice entonces
Bm G (Suena el arpegio sobre cada
cuando la noche me protegia acorde ragueado)
Bm G
no me perguntes qué pretendia
Bm G
cuando el dolor lo perseguia

B5 G5 B5 G5
e--------------------------------------------------|
B--------------------------------------------------|
G--------------------------------------------------|
D--------------------------------------------------|
A-2~--4h5p4-0----4h5p4-0-2~--4h5p4-0--------5-0-2--|
E-------------3~---------------------3----3--------|

Bm G
la lucidez sigue conmigo
Bm G (Aqui pasas de B al G en la
maldita sea como un castigo 6ª cuerda con slide donde
Bm G cambia el acorde pero usando
Abrir los ojos me hace daño distorsion)
B5. G5
maldita sea voy ha Cerrarlos

B5 G5 B5 G5
e--------------------------------------------------|
B--------------------------------------------------|
G--------------------------------------------------|
D--------------------------------------------------|
A-2~--4h5p4-0----4h5p4-0-2~--4h5p4-0--------5-0-2--|
E-------------3~---------------------3----3--------|

B5 G5
lleno mi cuerpo dia tras dia
B5 G5
lleno mi cuerpo de porquerias

F#5 G5
y reventar!!! es lo que busco
F#5 G5
y reventar!!! es lo que busco

B5 G5 B5 G5
e--------------------------------------------------|
B--------------------------------------------------|
G--------------------------------------------------|
D--------------------------------------------------|
A-2~--4h5p4-0----4h5p4-0-2~--4h5p4-0--------5-0-2--|
E-------------3~---------------------3----3--------|

B5 G5
no creo en el amor malgastas tu calor
B5 G5
no creo en el amor malgastas tu caloor

F#5 G5
y reventar!!! es lo que busco
F#5 G5
y reventar!!! es lo que busco

B5 G5 B5 G5
e---------------------------------------------|
B---------------------------------------------|
G---------------------------------------------|
D-------------------------------2-4-5-4-2-----|
A-5-4-5---4-5-4-2-0-2-4-5-4-5------------5-4--|
E---------------------------------------------|

B5 G5 B5 G5
e---------------------------------------------|
B---------------------------------------------|
G---------------------------------------------|
D-------------------------------2-4-5-4-2-----|
A-5-4-5---4-5-4-2-0-2-4-5-4-5------------5-4--|
E---------------------------------------------|

B5 G5
no me despirtes si estoy soñando
B5 G5
no me entretengas si estoy viajando
B5 G5
no me des nada que no te pida
B5 G5
no me des nada si no es veneno
B5 G5
no me des nada!!! si no es veneno
B5 G5
no me des nada!!! si no es veneno
B5 G5
no me des nada!!! si no es veneno
B5
no me des nada

e------------------------------------------------------|
B------------------------------------------------------|
G------------------------------------------------------|
D--------------------------------4..----------------4--|
A---5-5--4-5-5--4-5-5--4-5-5--4--2..----4h5p4-0-2---2--|
E---3-3--2-3-3--2-3-3--2-3-3--2------------------------|

Hay ta totalmente wena 100% comprobada