Tus Bragas

El Ultimo Ke Zierre

Genero: Pop

Tablatura

Tab by SERGIO

Intro:
A C# D E E D C# B A




A C# D E
Soñé que me metí en tu cama tras un festival de invierno,ahora ya no sueño nada,

ya ha pasado mucho invierno.

A C# D E
Y no sé como es tu cama ni como suda tu cuerpo,me he quedado con las ganas

y tu, te has quedado conmigo.

A C# D E
y tu te has quedado conmigo,y tu te has quedado conmigo,y tu te has quedado conmigo,

y tu te has quedado conmigo

A C# D E
Con mis ganas de vivir,con mis ganas de sentir,con mis ganas de pecar,

con mis ganas de soñar

E|-----------------------------------------|-----------------------------------------------------
B|-----------------------------------------|-----------------------------------------------------
G|-----6-6-6-4------------------4-6-7p6----|--11-11-11-12-11-9h11p9------------------------------
D|--/7---------7-6-7-4----4-6-7---------7--|-------------------------12-11---------9-12-11-9-----
A|-----------------------------------------|-------------------------------9-11-12-----------12--
E|-----------------------------------------|-----------------------------------------------------

----------------------------------------------------|
----------------------------/10-9-------------------|
-------11-9--------11-9-----------11-9-7-6----------|
--9h11--------9h11-------------------------9-6-7----|
----------------------------------------------------|
----------------------------------------------------|

A C# D E
Y ante tanto desconsuelo echo mis huesos al suelo y me duermo boca arriba,

por ver si me ahoga la pota

A C# D E
de ese Ron que ya es vinagre,el que alimenta mis sueños,Más los sueños mierda son

y tu, te has quedado conmigo.


y tu te has quedado conmigo......

Con mis ganas de vivir.....

A C# D E
Y no me has dejado nada,y de nada nunca hay restos,yo soñaba con tus bragas

y tu te has quedado conmigo.

A C# D E
Yo soñaba con tus bragas,y tu te has quedado conmigo,yo soñaba con tus bragas

yo soñaba con tus bragas

A C# D E
tus bragas,tus bragas,tus bragas,tus bragas....

(En este solo se tocan los acordes de la intro)

E|------5-3-5-5--3--8-- --8-8-8-8-8-8-8-8------5-5----|
B|--3/5-5-3-5-5--3--8-- --8-8-8---8-8-8-8--3/5-5-5----|
G|--------------------- x3 ------------------------------| Todo esto x3
D|--------------------- ------------------------------|
A|--------------------- ------------------------------|
E|--------------------- ------------------------------|

Y al final añadir:

E|----8-8---7-7---6-6---5-5--4-5~~-----|
B|--8-8-8-7-7-7-6-6-6-5-5-5--4-5~~-----|
G|-------------------------------------|
D|-------------------------------------|
A|-------------------------------------|
E|-------------------------------------|



PARA CUALKIER COSA:

TRIBAL2@HOTMAIL.COM