Tu Sexo

El Ultimo Ke Zierre

Genero: Pop

Tablatura

INTRO:
( A C# B C# x2 D F# E F# x2 )x2
(A D C D x4) D (PUNTEO 1) (A x4) (A G x4)


A D + PUNTEO 2
Entre tus piernas rozas tu dedo, mujer
no seas tonta, mi lengua lo puede hacer.
No espero nada tan solo darte placer.

E E
Tu sexo lameré, tu sexo excitaré,
E C B (A G x4)
tu sexo masturbaré.

Emborracharme de ese licor especial
que con mi lengua te voy a hacer expulsar.
Quiero asfixiarme entre tus piernas, mujer.

Tu sexo lameré, tu sexo excitaré,
tu sexo masturbaré.

PUNTEO 1

--5--5--5--5--5--5--5--5--|-------------------------------|
--5--5--5--5--5--5--5--5--|-------------------------------|
--------------------------|--7b--5-5-7--5-5-7--5-5-7--5-5-|
--------------------------|-------------------------------|
--------------------------|-------------------------------|
--------------------------|-------------------------------|

--10--10--10--10--10--10--10--10--|
--10--10--10--10--10--10--10--10--|
----------------------------------|
----------------------------------|
----------------------------------|
----------------------------------|

-------------------------------------------|
-------------------------------------------|
--12b--10-10-12--10-10-12--10-10-12--10-10-|
-------------------------------------------|
-------------------------------------------|
-------------------------------------------|



PUNTEO 2

|------------------------------|
|---------------8----6----8----|
|--7--7-7-7--7--7----5----7----|
|--7--7-7-7--7-----------------|
|--5--5-5-5--5-----------------|
|------------------------------|