Tu Casa Esta Cerrada

El Ultimo Ke Zierre

Genero: Pop

Tablatura

Intro:

E A x2 mientras suena la Fig.1

Fig 1.

1|------4---2-----------4---2-------------2-4||
2|--2s5-------5-2---2s5-------5-2-----2-5----||
3|-------------------------------------------||
4|-------------------------------------------||
5|-------------------------------------------||
6|-------------------------------------------||


Fig 2.

1|-----4---2-------------4--||
2|-2s5-------5-2-----2s5----||
3|--------------------------||
4|--------------------------||
5|--------------------------||
6|--------------------------||






E
Ay que pena,
A E
que las aguas del estrecho no callaran
A E A (Fig.2)
cuando cruzó por ellas la vida y la esperanza,
E A
que la luna no alumbrara,
E
las estrellas no brillaran
A E A (Fig.2
ni cegara las miradas de los perros de la playa
E A E
y que sólo la mañana delatase sus pisadas,
A E A(Fig.2)
no sufrir más la vergüenza de sus cuerpos en la arena.

Distorsión

E5 A5 E5 A5
¿Sabes tú, vecino, de cuántos muertos hablarán mañana?
E5 A5 E5 A5
¿Sabes tú, vecino, de cuántos muertos hablarán mañana?
C#5 B5 A5
Dime, ¿cuántos hacen falta para hacernos vomitar?
C#5 B5 A5
Dime si apenas te importa que todo siga igual,
C#5 B5 A5
dime si apenas te importa


Fig.3

1|-------------------------------------------||
2|---4--7-4----------2--5-2------------------||
3|-4--------4-4----2--------2-2--------------|| x2
4|-------------------------------------------||
5|-------------------------------------------||
6|-------------------------------------------||




C#5 B5 A5
Dime lo que ya sabemos y no queremos ver,
C#5 B5 A5
dímelo hasta que me importe y no me deje comer,
C#5 B5 A5
dime lo que ya sabemos.


B5 A5
Que no hay agua pal sediento,
B5
que no hay paz pa quien la anhela,
A5
que no hay sombra, que no hay pan,
B5 A5
que no hay techo ni trabajo
B5 A5
en esta casa cristiana,
B5 A5
en esta casa cristiana

Fig.4

1|-------------------------------------------||
2|-------------------------------------------||
3|-------------------------------------------|| x4
4|-6--4--6-2--2-4-6-4-2----------------------||
5|-------------------------------------------||
6|-------------------------------------------||



Fig.5

1|-----------------------------------------------------------||
2|-----------------------------------------------------------||
3|-7^-8^^^-6---------6-8-9-8---6~-6-8~-6--------6-8-9-8---6~-||
4|-----------9-7---7---------9-----------9-7~-7---------9----||
5|-----------------------------------------------------------||
6|-----------------------------------------------------------||


1|----------------------------------------------------------------||
2|------10-9--9-10-9-7---7----------------------------------------||
3|-6-8~----------------9---9-8-9~--8-9-8-9-8---6~---6-8-9-8---6~--||
4|-------------------------------------------9----9---------9-----||
5|----------------------------------------------------------------||
6|----------------------------------------------------------------||





C#5 B5 A5
Que tu casa está cerrada
C#5 B5 A5
a los vientos de poniente,
C#5 B5 A5
que no quieres más aromas,
C#5 B5 A5
que tu casa está cerrada.

A5 B5 A5 B5 A5B5 E5


este es mi primer aporte,
ojala ke este bueno porke esta canción es de las mejores
de EUKZ
si tiene errores traten de arreglarlos uds mismos
saludos
flakolol@hotmail.com