Te Estás Durmiendo

El Ultimo Ke Zierre

Genero: Pop

Tablatura

Cada vez que veas un (*) es porq debes tocarla varias
veces (tu decides cuantas)

Intro:
C G A G
e-----------------------------------------|
B-----------------------------------------|
G---5(*)-4---5-4---------5------5-4-------| (x2)
D----------5--------7(*) ---5--5----------|
A-----------------------------------------|
E-----------------------------------------|

C G
Días de antigua moral, se huelen
A G
De censura irracional, se sufren.
C G
Si no quieres comulgar, te advierten
A G
Vamos a llevarnos mal, ¡valiente!


C G C G
e-----------------------------------------|
B-----------------------------------------|
G---5(*)-4-2--------5(*)-4-2--------------|
D------------5-3-5-----------5-3-5--------|
A-----------------------------------------|
E-----------------------------------------|
A G A G
e-----------------------------------------|
B-----------------------------------------|
G--------5-4--------------5-4-------------|
D---7(*) ----5-3-5---7(*) ----5-3-5-------|
A-----------------------------------------|
E-----------------------------------------|


C G C G
Callarán tus besos y adulterarán tus versos
A G F G
hasta hacer de ti un bufón, sin derecho a la palabra.
C G C G
Tragarás saliva antes de gritar tus quejas
A G F G
y callar tus sufrimientos, será tu peor condena.

C G C G
Te estás durmiendo, te estás durmiendo
A G F G
sobre una cama ardiendo que abrasará tus sueños.
C G C G
Vives fingiendo, vives fingiendo
A G F G
que eres persona libre en un entorno enfermo.

Luego se repiten algunas estrofas y punteos, que no es necesario poner ya ke kualkiera se daria kuenta.

Y Para el fin

C G C G
e-----------------------------------------|
B-----------------------------------------|
G---5(*)-4-2--------5(*)-4-2--------------|
D------------5-3-5-----------5-3-5--------|
A-----------------------------------------|
E-----------------------------------------|
A G A G
e-----------------------------------------|
B-----------------------------------------|
G---9(*)-8-6--------9(*)-8-6--------------|
D------------9-7-9-----------9-7-9--------|
A-----------------------------------------|
E-----------------------------------------|
A C B G
e--------------|
B--------------|
G------5-4-----|
D-7(*) ----5---|
A--------------|
E--------------|