Soldadito Español

El Ultimo Ke Zierre

Album: No Soporto Vuestras Caras
Genero: Pop

Tablatura (Ver letra)

Esta cancion esta bastante identica, mira bien y presta atencion...

###################################################################
(EN ESTA PARTE ENTRA LA BATERIA SOLA)

Cuando vayas por el campo,
no pises las amapolas,
que están regadas con sangre
de la infantería española.

###################################################################
(ESTA PARTE SE SOCA ANTES DE EMPESAR A CANTAR)

D5 A5 F5 C5
e |------------------------|
B |------------------------|
G |-7-7---3-3---------5-5--|
D |-7-7---3-3---3-3---5-5--|
A |-5-5---1-1---3-3---3-3--|
E |-------------1-1--------|
PM * * * *

###################################################################

D5 A5
Todas las mañanas cuando suena la corneta,
F5 C5
me toca levantarme y coger una escopeta.

D5 A5 F5 C5
e |--------------------|
B |--------------------|
G |--7----3---------5--|
D |--7----3----3----5--|
A |--5----1----3----3--|
E |------------1-------|

###################################################################

D5 A5
Tu Escúchame recluta esto no es una escopeta,
F5 C5
es un fusil de asalto y ya me tienes más que harto.

D5 A5 F5 C5
e |---------------------------------------------|
B |---------------------------------------------|
G |----------------------------------5----------|
D |----------------------------------5----------|
A |-5555555555-1111111111------------3----------|
E |-----------------------1111111111------------|
PM ********** ********** **********

###################################################################

D5 A5
Yo si que estoy harto de este fusil de asalto,
F5 C5
llevo tres semanas y estoy que no me aguanto,
D5 A5
y tú ¿qué te has creido? Con tanta presunción.
F5 C5
Te callas o te arresto y te vas a prevención.


D5 A5
Soldadito español,
F5 C5
olvídate de tu misión
D5 A5
y no sufras cara el Sol,
F5 C5
grita: ¡Insumisión!

D5 A5 F5 C5
e |------------------------|
B |------------------------|
G |-7-7---3-3---------5-5--|
D |-7-7---3-3---3-3---5-5--|
A |-5-5---1-1---3-3---3-3--|
E |-------------1-1--------|
PM * * * *

###################################################################
(ESTA PARTE SE TOCA MIENTRAS SE TOCA EL SOLO)

D5 A5 F5 C5
e |------------------------|
B |------------------------|
G |-7-7---3-3---------5-5--|
D |-7-7---3-3---3-3---5-5--|
A |-5-5---1-1---3-3---3-3--|
E |-------------1-1--------|
PM * * * *

###################################################################

Dejaste en tu pueblo a unos buenos colegas,
dejaste a tu vieja y a tu compañera,


D5 A5
y todo esto para terminar,
F5 C5
en su hipocresía y con tanta tontería.
D5 A5 F5 C5
e |---------------------------------------------|
B |---------------------------------------------|
G |-7----------3---------------------5----------|
D |-7----------3----------3----------5----------|
A |-5555555555-1111111111-3----------3----------|
E |-----------------------1111111111------------|
PM ********* ********* *********

###################################################################

D5
Cuando vayas por el campo,
A5
no pises las amapolas,
F5
que están regadas con sangre
C5
de la infantería española.

D5
Cuando vaya por el campo,
A5
pisaré las amapolas,
F5
que están regadas con sangre
C5
de la hipocresía española.

D5 A5
Soldadito español,
F5 C5
olvídate de tu misión
D5 A5
y no sufras cara el Sol,
F5 C5
grita: ¡Insumisión!

D5 A5 F5 C5
e |------------------------|
B |------------------------|
G |-7-7---3-3---------5-5--|
D |-7-7---3-3---3-3---5-5--|
A |-5-5---1-1---3-3---3-3--|
E |-------------1-1--------|
PM * * * *

###################################################################
(ESTA PARTE SE TOCA MIENTRAS SE TOCA EL OTRO SOLO)

D5 A5 F5 C5
e |------------------------|
B |------------------------|
G |-7-7---3-3---------5-5--|
D |-7-7---3-3---3-3---5-5--|
A |-5-5---1-1---3-3---3-3--|
E |-------------1-1--------|
PM * * * *

###################################################################

D5 A5
Soldadito español,
F5 C5
olvídate de tu misión
D5 A5
y no sufras cara el Sol,
F5 C5
grita: ¡Insumisión!

D5 A5 F5 C5
e |------------------------|
B |------------------------|
G |-7-7---3-3---------5-5--|
D |-7-7---3-3---3-3---5-5--|
A |-5-5---1-1---3-3---3-3--|
E |-------------1-1--------|
PM * * * *

###################################################################
(ESTA PARTE SE TOCA MIENTRAS SE TOCA EL ULTIMO SOLO OSEA HASTA
QUE SE ACABE LA CANCION)

D5 A5 F5 C5
e |------------------------|
B |------------------------|
G |-7-7---3-3---------5-5--|
D |-7-7---3-3---3-3---5-5--|
A |-5-5---1-1---3-3---3-3--|
E |-------------1-1--------|
PM * * * *

###################################################################


SI TIENE AGUNA DUDA O PREGUNTA ME ESCRIBEN
ruben603@hotmail.com

AHHH!!! Y PERDONEN POR NO AVER PUESTO LOS SOLOS ENVERDAD
NO LOS SE SACAR...