Sin Lamentos

El Ultimo Ke Zierre

Album: Ay, de mí!
Genero: Pop

Tablatura (Ver letra)

Bueno este tema lo zakedesde ke estubo EUKZ en chile
perdon si no lo subi antes por falta de tiempo.


SIN LAMENTOS

INTRO:
E
G---------------------------------------- Fig. 1
D--4/6--7-6-4-6---4-6-7-6-9-7-11---------
A----------------------------------------
E----------------------------------------

A
G---------------------------------------- Fig. 2
D--9-11-12-11-9-11---9-11-12-11-14-12-11-
A----------------------------------------
E----------------------------------------

E
G---------------------------------------- Fig. 3
D--4/6-7-6-4-6---------------------------
A----------------------------------------
E----------------------------------------

ahora toka lo mismo pero kon mas kaña

Fig.1
Cual será mi sino y cual es mi enfermedad
Fig.2
que por más que quiero, no me deja claudicar.
Fig.3
No soporto el peso
F#
del lastre que he de llevar
A E
no quiero lo que me dan, ni lo entiendo.
F#
Nunca llevaré reloj
A E
y será mi corazón quien pare mis pasos
F# A
sin lamentos sin lamentos.


INTRO

E
Y aunque ves mis huellas, no soy de esta vecindad
A
no encuentro mi asiento en este espacio limitado.
E
No soporto el peso
F#
del lastre que he de llevar
A E
no quiero lo que me dan, ni lo entiendo.
F#
Nunca pediré perdón
A E
si ha sido mi corazón quien habló primero,
F# A
sin lamentos sin lamentos.

E A E
Culo de mal asiento
A E
ya todo me da igual
A E
si digo lo que siento,
A E
me quieren ingresar.


D-------7--7-7-7-7p6-----------
A--5h7---------------7--------- x3 base E A
E-----------------------7-7----
Pm.
INTRO
F#
Y he dejado de tragar,
A E
los mensajes que me dan se me indigestan.
F#
Hace tiempo decidí
A E
que el momento he de vivir y aceptarlo,
F# A F#
sin lamentos sin lamentos sin lamentos
A
SIN LAMENTOOOOOOS



Todo kon kintas.
ami me suana muy bien pero al principio ayudence
con algun efecto.

Esta kancion se la dedico a una amiga ke se llama belen
y ke estoy baboso por ella.