Para Que Quiero Mas Calor

El Ultimo Ke Zierre

Genero: Pop

Tablatura

Tab by SERGIO


Intro: A F

Punteo 1:
A F A F A F A
E|----------------------------------------|
B|----------------------------------------|
G|----------------------------------------|
D|----------------------------------------|
A|--0-2-3-----0-2-3-/8---0-2-3----0-2-3---|
E|--------1--------------------1----------|


A E
El infierno me acompaña,para que quiero más calor.
A
Mil pecado, mil virtudes, pues la vida me ha enseñado
F
que el placer lo da la carne y el castigo vuestro Dios.
F A E A
Me quedo con mi infierno,me cago en vuestro Dios + Punteo 1

A E
Y si un día me levanto alguien me da un empujón,
A
ya no aguanto la alegría del que un día me pisó
F
Hubo toros malheridos que han partido un corazón.
F A E A
Más vueltas da la vida que las de un simple reloj,
F A E A F A F A F A F
más vueltas da la vida No me pidáis la paz.


Solo:

E|------------------------------8-7-5-------------------------------------------|
B|----------------/8-6-5h6-5----------8-6-5---5h6p5-----------------------------|
G|----------5h7-----------------------------7-------7p5---5-----------5h7-------|
D|------5h7---------------------------------------------7---------5h7-----7-----|
A|--5h7-------------------------------------------------------5h7---------------|
E|------------------------------------------------------------------------------|



A F A F
Que mala es mi sangre que duro mi corazón.
A F A F
Hoy pienso en ser bueno mañana me prendo
A F
y gozo con el dolor


Solo 2:Por desgracia carezco aun de la hablilidad necesaria para aprender y ejecutar dicho solo

A F
y gozo con el dolor


A B C F A B C F A B C F A B C



PARA CUALKIER COSA:

TRIBAL2@HOTMAIL.COM