Odio

El Ultimo Ke Zierre

Album: A cara de perro
Genero: Pop

Tablatura (Ver letra)

Este tab corresponde a la cancion ODIO del disco en direco de \'El ultimo ke zierre\'
Para cualquier duda,peticiones,sugerencias enviad un correo a: omijbs@hotmail.com
Saludos al grupo \'Los cigueños\' y \'La virgen puta\'. Aupa Plasencia!!
Tab dedicado a Karla Caballero :* y a Ana Beltran.
Autor: Omar Javier Beltrán.

Anotación
---------
P.M - Palm mute
s/ - Slide
~ - vibrato


E||-------------------------------------||
B||-------------------------------------||
G||-------------------------------------|| Intro
D||---9-------9-------9-----------------||
A||---9---9---9---9---9---9---9-8-7-5---||
E||---7-7-7---7-7-7---7-7-7---7-6-5-3---||


E||------------------------------||
B||------------------------------||
G||------------------------------|| RIFF 1
D||---1--1-1-5--5-5-1--1-1-7-7---||
E||---0--0-0-3--3-3-0--0-0-5-5---||


E||------------------------------------------||
B||------------------------------------------||
G||------------------------------------------|| RIFF 2
D||---1--5--1--7--1--5--1--7---7---9-8-7-5---||
E||---0--3--0--5--0--3--0--5---5---7-6-5-3---||



PM...............................................
E||-----------------------------------------------------------------||
B||-----------------------------------------------------------------||
G||-----------------------------------------------------------------|| RIFF 3
D||-----------------------------------------------------------------||
E||---00000-33333-55555-77777-00000-33333-55555-77777--7~~--7s/11---||



||--------------------||
||--------------------||
||--------------------|| BAJO
||---0-003-33-00555---||


E||--------------------------------------||
B||--------------------------------------||
G||--------------------------------------|| RIFF 4
D||---7--7----1--1-1-5--5-5-1--1-1-7-7---||
E||---5--5----0--0-0-3--3-3-0--0-0-5-5---||


E||-----------------------------------||
B||-----------------------------------||
G||-----------------------------------|| FINAL
D||---9-8-7-5--9-8-7-5--9-8-7-5---1---||
E||---7-6-5-3--7-6-5-3--7-6-5-3---0---||




Estructura
----------
[Intro]-[RIFF 1]
[RIFF 2]
Odio, odio a la gente,
Odio, odio a la gente,
Odio, odio a la gente,
Odio, odio a la gente,
odio a la genteeeeeee,

[RIFF 3]
Voy a pillar una recortada,
y provocar una espantada,
loco disparar hacia esos muchos
hasta acabar con mis cartuchos,con mis cartuchoooos.

[RIFF 2]
Odio, odio a la gente,
Odio, odio a la gente,
Odio, odio a la gente,
Odio, odio a la gente,
odio a la genteeeeeee,

[RIFF 3]
No tengo fe,
no tengo móvil,
y tu pensando en el
Ninguna ley, tan solo el odio,tan solo el odiooooo,
ningún mensaje, tan solo el odio.

[RIFF 2]
Odio, odio a la gente,
Odio, odio a la gente,
Odio, odio a la gente,
Odio, odio a la gente,
odio a la genteeeeeee,

[BAJO]-[RIFF 4]
Sois todos una pandilla de hijos de puta

[BAJO]-[RIFF 4]
Si si, sois todos una pandilla de hijos de puta
hablar por hablar por hablar hijos de puta

[RIFF 3]
Cuando entierre a toda esa gente
me voy a pagar una puta,
me la llevaré al cementerio
y la follaré sobre vuestras tumbas, vuestras tumbaaas.

[RIFF 2]
Odio, odio a la gente,
Odio, odio a la gente,
Odio, odio a la gente,
Odio, odio a la gente,
odio a la genteeeeeee,

[RIFF 3]
Mientras los gusanos les estén comiendo
Yo me estaré corriendooo. ¡Odio!
[FINAL]