Nunca Más

El Ultimo Ke Zierre

Album: No Soporto Vuestras Caras
Genero: Pop

Tablatura (Ver letra)

B5      E#5       E5      F#5
Eres una perdición que pasea por mi mente

B5 E#5 E5 F#5
nunca he visto una mujer que me pegara tan fuerte.

B5 E#5 E5 F#5
No supiste valorar el cariño que te daba

E5 B5
y preferiste un mal vicio.

E5 F#5
y preferiste un mal vicio.

E5 B5
Me entra angustia de pensar

E5 F#5
y ver como has terminado.


B5 E#5 (esta parte es + rápida)
Nunca, nunca más temblaré

E5 F#5
cuando estés en mi presencia

B5 E#5
nunca más te observaré

E5 F#5
con mirada de deseo

B5 E#5
y seguro que te encontraré

E5 F#5
tirada por los lavabos

E5 B5
o vendiéndote en la calle

E5 F#5
o muerta de sobredosis

E5 B5
Me entra angustia de pensar

E5 F#5
y ver como has terminado.

Estos son los acordes (son simples quintas):

e---------------------
b-----|--- |---|----|-
g-----|-8- |-9-|-11-|-
d---9-|-8- |-9-|-11-|-
a---9-|-6- |-7-|-9--|-
e---7-|--- |---|----|-
B5 E#5 E5 F#5
(este es un pequeño arreglo que se hace siempre al final del acorde fa#5)

e-----------------|-
b-----------------|-
g--1111-----------|-
d--1111-11-9-8----|-
a--9-9---------7--|-
e-----------------|-