No Es Verdad

El Ultimo Ke Zierre

Genero: Pop

Tablatura

/ = Slide
[ Las notas en Quinta ]
Intro : A5 - F5 - G5 - Em x2

/--------------------------------
/--------------------------------
/-4/555-555-4/555 555-777-5-4---- x2
/--------------------------------
/--------------------------------
/--------------------------------

( Las notas jaspiadas menos el “La “ que va fuerte!
Y el Ultimo MiMayor se toca desde la primera cuerda. )

A F G E
Sé que esperabas que te diera calma y vida larga
A F G E
Suelo cansarme demasiado pronto de ser bueno
A F G E
No encuentro calma en esa calma que anhelabas
A F G E
Las melodías del infierno me suenan a gloria

F G C A
Lo siento estoy perdido para el amor que buscas
F G A
En el no encuentro calma, no
F G C A
Lo siento estoy perdido para el amor que buscas
F G
En el no encuentro!

A5 - F5 - G5 - Em x2

/--------------------------------
/--------------------------------
/-4/555-555-4/555 555-777-5-4---- x2
/--------------------------------
/--------------------------------
/--------------------------------

A F G E
Y no es verdad que ahora vivo como muerto
A F G E
Y no es verdad que ahora tengo piedras dentro
A F G E
Y no es verdad que ni suspiro ni sonrío al viento
A F G E
Y no es verdad que las sirenas ya no me vuelven loco

F G
Dame tu amor primero,
C A
dame tu cuerpo luego
F G A
después tus ganas de llorar

F G
Dame tu amor primero,
C A
dame tu cuerpo luego,
F G
después tus ganas !

*Intro : A - F - G - Em (x4 )

*
/---------------------------------------------------------------
/-3/555-555-555-555-333-333--------3/555-555-555-555-333--------
/--------------------------4/5-555----------------------4/5-555-
/---------------------------------------------------------------
/---------------------------------------------------------------
/---------------------------------------------------------------

/-555-555-555-555-333-333---------------------------------------
/-------------------------4/5-555-555--555-555-333-333----------
/-------------------------------------------------------4/5-555-
/---------------------------------------------------------------
/---------------------------------------------------------------
/---------------------------------------------------------------

/---------------------------------------------------------------
/---------------------------------------------------------------
/--555-4/5-555-555-4/5-555-555----------------------------------
/---------------------------------------------------------------
/---------------------------------------------------------------
/---------------------------------------------------------------

F G
Seré tu amor primero,
C A
seré tu cuerpo luego,
F G A
después tus ganas de llorar

F G
Serás mi amor primero,
C A
serás mi cuerpo luego,
F G A
después mis ganas de llorar

F G
Dame tu amor primero,
C A
dame tu cuerpo luego,
F G A
después tus ganas de llorar

F G
Dame tu amor primero,
C A
dame tu cuerpo luego,
F G !
después tus ganas !

Final: * ( A - F - G - E ) x4 - Fa
( El ultimo MiM , de la cuarta vez se mantiene un rato ,
después la canción termina con el Fa )
* Acompañado con el punteo :


/------------------------------------------------------
/-555-555-3---------------3-6-6/5-3-------3------------
/-----------5-4/5---2-4-5-----------5-4-5---5-4-2------
/-----------------5-------------------------------5----
/------------------------------------------------------
/------------------------------------------------------

/------------------------------------------------------
/---------3-------6666-5-3---------------3-5-6-5-3/5---
/---2-4-5---5-4------------5-4-----2-4-5---------------
/-5------------------------------5---------------------
/------------------------------------------------------
/------------------------------------------------------

/------------------------------------------------------
/-6/8-888-6-5-3-6-6/5----------6-6/5---------3/5*------
/------------------------2-4-5-------5--4--7-----------
/----------------------5-------------------------------
/------------------------------------------------------
/------------------------------------------------------

Bueno , después de todo este tiempo de ocupar este gran sitio
Era minimo algun aporte , me llevo 2 dias sacarla entera xD .
Pero bueno , espero que les sirva , a mi juicio esta muy bien
Sacada . Ah y otra cosa , los fundamentos del por que solo canciones
En español , lo encuentro buenísimo! .

Dedicada a GabrieLa/Shiby/Blú! * , la persona MAS linda que e conocido
Atte cLayO[MAS] Agradecimientos a www.fotolog.com/superxfluaaa
Gracias * - PorNada* xD