Mangui

El Ultimo Ke Zierre

Album: ¡Bulla!
Genero: Pop

Tablatura (Ver letra)

weno gente, mi tercer tab, e pillao esta peazo de kancion y e vistyo k le faltaba el \'solo\'
asi k vamos a ver k pasa:

Intro: C A C A -------> en kintas, fácil no?¿

Empieza a kantar:

C A F
Adonde vas me dicen, lo tuyo no es normal, siempre en la kalle, siempre en la kalle,
C A F
no te falata de na, vives sin trabajar, pegando palos, pegando palos,
C A F(LE DAMOS SOLO UN GOLPE)
y nunka entenderan, k esto es vokacional, vivir de notxe, vivir de notxe.


Estribillo:

C E F G
k por la notxe todo mando al diablo
C E F G
x la notxe no hay trabajo honrado
C E F G
venderé, hachís y kokaina
C E F G
me najaré, kuando regrese el dia........

C A, C A

Solo kon las kintas:

LAS KINTAS SON LAS MISMAS K KUANDO KANTA: C A F

B ---------------------------------------------5--6--6s8-8--10--10--10-----
G ------------5-------------5------------5--7------------------------------
D ------5--7----------5--7---------5--7------------------------------------

E 8-8-8-88-8888s7--8-8-8-88-8888-------------------8-------------------------
B 8-8-8-88-8888s7--8-8-8-88-8888--10--8-----8--10----8^----8H10--8-----8H10P8
G ---------------------------------------9--------------------------9--------

E 8-8-8-88-8888s7--8-8-8-88-8888-------------------8-------------------------
B 8-8-8-88-8888s7--8-8-8-88-8888--10--8-----8--10----8^----8H10--8-----8H10P8
G ---------------------------------------9--------------------------9--------

C A C A

C A F
Y hoy todos me dicen, lo k ha de se de mi, de k soy carne, de k soy carne,
C A F
soy carne de presidio, soy carne de homicidio,siempre en el borde, siempre en el borde,
C A F
y nunka entenderán, k esto es vocacionaaaaaaaaaaal


Estribillo:

C E F G
k por la notxe todo mando al diablo
C E F G
x la notxe no hay trabajo honrado
C E F G
venderé, hachís y kokaina
C E F G
me najaré, kuando regrese el dia........


DA VARIOS GOLPES EN G XA TERMINAR EL ULTIMO GOLPE DE GUITARRA EN C.


Pos eso es todo amigos!!!! epro k les suene bien, a mi no me suena mu mal
XDD. saludos a helen y tity.

Xa opiniones, dudas, correcciones o kualkier otra kosa :
vicio1313@hotmail.com