Lobo Estepario

El Ultimo Ke Zierre

Genero: Pop

Tablatura

Bueno este es un tema de los que me encantan de esta banda, este
originalmente es un poema que encontramas dentro del libro
EL LOBO ESTEPARIO de Hermann Hesse, es un libro que lo recomiendo.
El Ultimo Ke Zierre lo musicaliso y adapto quedando una obra maestra


Intro: E8 F#8 E8 F#8 D A C# X2

F# A C#
Yo voy lobo estepario trotando por el mundo
F# A C#
De nieve cubierto del abedul sale
F# A C#
Un cuervo volando y no cruzan liebres ni corzas
F# A C#
Por este desierto y no cruzan liebres

F# D A
Me enamora una corza ligera en el mundo no hay nada tan lindo
F# A C#
Y hermoso, con mis dientes y zarpas de fiera
F# D A
Destrozar a su cuerpo sabroso
F# A C#
Destrozar a su cuerpo

E8 F#8 E8 F#8 D A C# X2

F# A C#
Y volviera mi afán a mi amada,y volviera mordiendo su carne
F# A C#
Blanquísima Saciando mi sed en su sangre
F# A C#
Por mi derramada,para aullar luego solo en la
F# A C#
Noche tristísima. Para aullar luego solo.


F# D A
Una liebre bastara a mi anhelo; dulce sabe su carne en la noche
F# A C#
Callada¡Ay! ¿Por qué me abandona en letal desconsuelo
F# D A
De la vida, la parte más noble y más pura?
F# A C#
De la vida, la parte más noble.

Solo
|-----------------------------------|
|-------10--------10----------------|
|--9h11----11-9-------11-9----9h11--|
|---------------11---------11-------|
|-----------------------------------|
|-----------------------------------|

|--------------------------------------------------|
|-----------------------------------------10-7-----|
|--------9-------------9------------7--9-9---------|
|-9-11-12--12-11-9---12---12-11-9------------------|
|--------------------------------------------------|
|--------------------------------------------------|

|-------------------------|
|-------------------------|
|-9/11-9--9--9/11-9--9----|
|-------11---------11-----|
|-------------------------|
|-------------------------|

|-----------------------------------------------|
|-----------------------------------------------|
|------------------------9--9h11-11-11-9-------|
|12-11-9-9-11-12-11-9-11------------------------|
|-----------------------------------------------|
|-----------------------------------------------|

E8 F#8 E8 F#8 D A C# X2 F#...

|--------------------------------------------------|
|--------------------------------------------------|
|---------------------------------------4-4--7-7-7-|ESO ES EL BAJO :)
|-2-2-2-2-2-2-2-2-2-2-2-2-2-2-2-5-5-5-5------------|

Vetas grises adquiere mi rabo peludo;
Voy perdiendo la vista y me atacan las fiebres;
Hace tiempo que estoy sin hogar y viudo,
Que troto y que sueño con corzas y liebres . . . C#

F#
Que mi triste destino me espanta
A C# F# A C#
Oigo al aire soplar en la noche de invierno,
F#
Hundo en nieve mi ardiente garganta,
A C# F# A C#
Y así voy llevando mi mísera alma al infierno.

E F# (hasta el final del tema)

|--------------------------------14*---------|
|-------------12--------------12-------------|
|-9/11*-11/14------9/11*-11/14---------------|
|--------------------------------------------|
|--------------------------------------------|
|--------------------------------------------|


ACORDES
E8 F#8 D C# A E F#
|--------------------------------------|
|--------------------------------------|
|--9---11----7----6--------------------|
|--9---11----7----6----7---2---4-------|
|--7----9----5----4----7---2---4-------|
|----------------------5---0---2-------|

Y eso seria este gran tema, ponganse las pilas pa subir temas, tan casi
todos pero faltan los solos, yo igual se muchos solos pero por paja
no los subo
BUENO SALUD, UN BESO PARA ELLAS Y UN ABRAZO PARA ELLOS, NOS VEMOS...